Akor Tab Söz Çeviri Anasayfası
Akor|Tab|Söz|Nota Arşivi
Gitar Akorları | Tab,Söz ve Nota Anasayfası | En Yeni Şarkılar | En Popüler Şarkılar | Akor Cetveli

Bilgiler
 
Seslendiren ve Şarkı: MFÖ - Sarı Laleler
Biçim: TAB - SOLO
Tarih: 18 Nisan 2009 Cumartesi
Gönderen: ty.phoon
Toplam Okuyan: 26.608 kişi
Bu Ay Okuyan: 473 kişi
Bu Hafta Okuyan: 58 kişi
 
Beğendiniz mi? Sarı Laleler Tab sayfasını Şimdi paylaşın:

MFÖ - Sarı Laleler - Tab


Puanlama:
 (37 kişi)

Sarı Laleler şarkısının diğer versiyonlarına bakın >>

Metin boyutu: ( + Büyült ) ( - Küçült)   
GİRİŞ SOLO

E-------------------------------/--------------------------------
A-2-3-------------------3---3---/--0-2-3-------0-2-0-------------
G-----0-2-4-5---5-4-2-0---0-----/--------0-2-4-------3-2---------
D-------------------------------/--------------------------------
B-------------------------------/--------------------------------
e-------------------------------/--------------------------------

ARA SOLO

E-------------------------------/--------------------------------
A-2----------------------3---3--/--0---------------------3-2-----
G---5-4-5-5-4-5--5-4-2-0---0----/----4-2-4-4-2-4---0-2-0---------
D-------------------------------/--------------------------------
B-------------------------------/--------------------------------
e-------------------------------/--------------------------------
Sarı Laleler Tab, AkorMerkezi.com'da yayınlanmıştır.
http://www.akormerkezi.com


İçerik Kısa Linki:


Beğendiniz mi? Sarı Laleler Tab sayfasını Şimdi paylaşın:


Sarı Laleler Tab için Komoçotoko'dan Gelenler
Aramalar: sarı laleler davul notaları, sarı laleler gitar solo re mi, mfö sarı laleler gitar notaları, sarı laler tab klasik gitar, sarı laleler aldım solo, klasik gitar sarı laleler, sarı laleler aldım tab, sarı laleler arpej, sarı laleler kolay gitar akoru, mfö sarı salaler basit tab
MFÖ - Sarı Laleler için Kullanıcı Görüşleri

harika olmuş


Bu Yoruma Cevap Ver
BlackPather | 08 Ağustos 2011 Pazartesi 09:45
tm arkadasım sen duzltrsım cocuk ugrasmıs koymus bu ne herkes bı kafadan o kadar ıyı bılıosan yazarsın altına on numara sarı lalerın tabını koyarsın mıllete kapak olur...


Bu Yoruma Cevap Ver
justmortal | 15 Haziran 2011 Çarşamba 16:47
on numara


Bu Yoruma Cevap Ver
T@YF | 09 Nisan 2011 Cumartesi 02:11
arkadaş tabı ters yazmışın :D


Bu Yoruma Cevap Ver
merterci | 22 Nisan 2010 Perşembe 21:30
harika olmuş


Bu Yoruma Cevap Ver
gerçekler | 17 Nisan 2010 Cumartesi 11:38
Bu ne yaaa? Dedim herhalde yeniyim diye böyle ama yorumlara bakınca anlaşıldı :)


Bu Yoruma Cevap Ver
ner10line | 03 Nisan 2010 Cumartesi 20:57
benceden hangi gitarın klavyesi :)


Bu Yoruma Cevap Ver
foyaskopcu | 30 Mart 2010 Salı 12:28
bu hangi gitarın klavyesi ?? :D:D


Bu Yoruma Cevap Ver
yamaha music | 22 Haziran 2009 Pazartesi 17:18
lütfen doğru dürüst yazın e b g d leri


Bu Yoruma Cevap Ver
gökhanemreakıl | 21 Nisan 2009 Salı 20:09


Siz de Görüş Bildirin

Yorum yazma alanı Akor Merkezi üyelerine özel bir bölümdür. (Giriş Yap / Üye Ol / Şifremi Hatırlat)


PAYLAŞ

Reklam



Anket
GitaRizm1999 soruyor:
Sizce Her Bakımdan En iyi Çalgı Hangisidir ?









Sonuçlar | Sonuçlar & Yorumlar
Yeni Anket | Anketler




Reklam


Radyo Dinle
AkorMerkezi.com © 2014
İletişim - Gizlilik Politikası - Kullanım Koşulları - Kurallar - Son Yorumlar - Rastgele

GitarAkor.com kolonisidir. Derleme 0,03 saniye.