Akor Tab Söz Çeviri Anasayfası
Akor|Tab|Söz|Nota Arşivi
Gitar Akorları | Tab,Söz ve Nota Anasayfası | En Yeni Şarkılar | En Popüler Şarkılar | Akor Cetveli

Bilgiler
 
Seslendiren ve Şarkı: Model - Bir Melek Vardı
Biçim: TAB - INTRO
Tarih: 03 Ağustos 2012 Cuma
Gönderen: yigitnebioglu
Toplam Okuyan: 15.085 kişi
Bu Ay Okuyan: 413 kişi
Bu Hafta Okuyan: 94 kişi
 
Beğendiniz mi? Bir Melek Vardı Tab sayfasını Şimdi paylaşın:

Model - Bir Melek Vardı - Tab


Puanlama:
 (9 kişi)

Bir Melek Vardı şarkısının diğer versiyonlarına bakın >>

Metin boyutu: ( + Büyült ) ( - Küçült)   
Model - Bir Melek Vardı Intro Arpej (Akustik)

E:|---------7----------------5--------------3----------------5-------------
B:|-----8-----8---8------7-----7--------3-----3---3------7-----7-----------
G:|---9---9-----9------7---7-----7----4---4-----4------7---7-----7---------
D:|------------------------------------------------------------------------
A:|------------------------------------------------------------------------
E:|------------------------------------------------------------------------
                                     
                                       Am     B   C
E:|---------7----------------5---------------------------------------------
B:|-----8-----8---8------7-----7--------1-----4---5------------------------
G:|---9---9-----9------7---7-----7------2-----4---5------------------------
D:|-------------------------------------2-----4---5------------------------
A:|------------------------------------------------------------------------
E:|------------------------------------------------------------------------

Sondaki akorlar diğer versiyonlarda da verilmişti. Şarkıyı dinlerseniz arpeji
kolayca çözebilirsiniz.Arpeji kulaktan çıkarttım. Kolay gelsin..

Yiğit Nebioğlu
Bir Melek Vardı Tab, AkorMerkezi.com'da yayınlanmıştır.
http://www.akormerkezi.com


İçerik Kısa Linki:


Beğendiniz mi? Bir Melek Vardı Tab sayfasını Şimdi paylaşın:


Bir Melek Vardı şarkısı için amatör kayıtları dinleyin: (Siz de Ekleyin)

Bir Melek Vardı Tab için Komoçotoko'dan Gelenler
Aramalar: model bir melek vardır akorlar, bir melek vardı akor türkçe müzik, bir melek vardı model tab, model bir melek vardı arpej, bir melek vardı gitar tab, akor merkezi arpej, model – bir melek vardı chords, model melek akor, bir melek vardı akor tab, bir melek vardı gitar arpej
Model - Bir Melek Vardı için Kullanıcı Görüşleri

solo çok güzel oturuyorda arada 1 tane daha solo varya onuda paylaşırmısınız acaba?


Bu Yoruma Cevap Ver
lordoft1 | 16 Mayıs 2013 Perşembe 17:57
Ben çaldım arkadaşlar bakabilirsiniz

http://www.youtube.com/watch?v=8J9Xz7EfOxo


Bu Yoruma Cevap Ver
black_5555 | 14 Ekim 2012 Pazar 08:51
15 Eylül 2012 Cumartesi tarihinde Berk696 yazmıştı:
Bu arpej nerde çalınıo keske yerini de belirtseydin
http://www.youtube.com/watch?v=0CjDdgYByAQ Al bakalım ;) Biraz arasan bulabilirdin


Bu Yoruma Cevap Ver
yigitnebioglu | 16 Eylül 2012 Pazar 12:17
Bu arpej nerde çalınıo keske yerini de belirtseydin


Bu Yoruma Cevap Ver
Berk696 | 15 Eylül 2012 Cumartesi 14:43
ben calıyordum ama yanlıs atıyomuşum bu soloyu iyi oldu bunu görmem.. emeğine sağlık kardeşim..


Bu Yoruma Cevap Ver
SuaL10 | 04 Ağustos 2012 Cumartesi 10:27


Siz de Görüş Bildirin

Yorum yazma alanı Akor Merkezi üyelerine özel bir bölümdür. (Giriş Yap / Üye Ol / Şifremi Hatırlat)


PAYLAŞ

Reklam



Anket
bella thon soruyor:
Hangisinin Yerinde Olmak İstersin











Sonuçlar | Sonuçlar & Yorumlar
Yeni Anket | Anketler




Reklam


Radyo Dinle
AkorMerkezi.com © 2014
İletişim - Gizlilik Politikası - Kullanım Koşulları - Kurallar - Son Yorumlar - Rastgele

GitarAkor.com kolonisidir. Derleme 0,05 saniye.