Akor Tab Söz Çeviri Anasayfası
Akor|Tab|Söz|Nota Arşivi
Gitar Akorları | Tab,Söz ve Nota Anasayfası | En Yeni Şarkılar | En Popüler Şarkılar | Akor Cetveli

Bilgiler
 
Seslendiren ve Şarkı: Model - Makyaj
Biçim: TAB - SOLO
Tarih: 19 Nisan 2011 Salı
Gönderen: qwerty86
Toplam Okuyan: 23.769 kişi
Bu Ay Okuyan: 8 kişi
Bu Hafta Okuyan: 29 kişi
 
Beğendiniz mi? Makyaj Tab sayfasını Şimdi paylaşın:

Model - Makyaj - Tab


Puanlama:
 (17 kişi)

Makyaj şarkısının diğer versiyonlarına bakın >>

Metin boyutu: ( + Büyült ) ( - Küçült)   
Şarkının sonundaki doğaçlama kısmıdır. İyi eğlenceler ;)

E-----------------------------10-8------------------------------------------
B------8-8-8-8-8-9/8---/8-8-9------12-9-8-9-8------8-8----------------------
G-9-10--------------/10-----------------------9-10-----10-9-10-9/10/9-------
D---------------------------------------------------------------------11-10-
A---------------------------------------------------------------------------
E---------------------------------------------------------------------------



E---------------------------------8-9-9/8------------------------------------------
B----------------------------9-11--------/9/8---------9-9/8------------------------
G------------9------9-10-9-9-----------------/10-9-10------/10/9/10/9--------------
D-10-8-10-11---11-11-------------------------------------------------/11/10-8-8-10-
A----------------------------------------------------------------------------------
E----------------------------------------------------------------------------------
Makyaj Tab, AkorMerkezi.com'da yayınlanmıştır.
http://www.akormerkezi.com


İçerik Kısa Linki:


Beğendiniz mi? Makyaj Tab sayfasını Şimdi paylaşın:


Makyaj şarkısı için amatör kayıtları dinleyin: (Siz de Ekleyin)

Makyaj Tab için Komoçotoko'dan Gelenler
Aramalar: makyaj flüt notaları, model makyaj akorlar, model makaj tab, makyaj model solo, makyaj şarkı notaları, makyaj model notaları, model makyaj tav, makyaj okor şa, arpej tab model, makyaj sarkisi notalari
Model - Makyaj için Kullanıcı Görüşleri

Güzel olmuş..:) emeğine sağlık.:)


Bu Yoruma Cevap Ver
bensenbizonlar | 09 Kasım 2012 Cuma 19:01
tebrik ederim gayet doğru bir çalışma olmuş emeğine sağlık.


Bu Yoruma Cevap Ver
alperk | 24 Haziran 2012 Pazar 11:59


Siz de Görüş Bildirin

Yorum yazma alanı Akor Merkezi üyelerine özel bir bölümdür. (Giriş Yap / Üye Ol / Şifremi Hatırlat)





Anket
65+6 soruyor:
Gitar Akord Etmek İçin Ap Tuner Programı İyi Midir?








Sonuçlar | Sonuçlar & Yorumlar
Yeni Anket | Anketler






Radyo Dinle
AkorMerkezi.com © 2015
İletişim - Gizlilik Politikası - Kullanım Koşulları - Kurallar - Son Yorumlar - Rastgele

GitarAkor.com kolonisidir. Derleme 0,03 saniye.