Akor Tab Söz Çeviri Anasayfası
Akor|Tab|Söz|Nota Arşivi
Gitar Akorları | Tab,Söz ve Nota Anasayfası | En Yeni Şarkılar | En Popüler Şarkılar | Akor Cetveli

Bilgiler
 
Seslendiren ve Şarkı: Model - Pembe Mezarlık
Biçim: Akor, Gitar Akorları - FULL
Tarih: 23 Mayıs 2011 Pazartesi
Gönderen: LetMeLoveYou
Toplam Okuyan: 264.802 kişi
Bu Ay Okuyan: 2.162 kişi
Bu Hafta Okuyan: 532 kişi
 
Beğendiniz mi? Pembe Mezarlık Akor sayfasını Şimdi paylaşın:

Model - Pembe Mezarlık - Akor


Puanlama:
 (253 kişi)

Pembe Mezarlık şarkısının diğer versiyonlarına bakın >>

Metin boyutu: ( + Büyült ) ( - Küçült)   
         Model - Pembe Mezarlık

Ton   : Eb2
Intro : Am-Dm-F-G-Am-G

Am       Dm          E
Tenin sinmiş yastığıma, 
F     G       Dm   F     Am
Dün gece terk etmeden önce. 
Am         Dm         E
İçimde bıraktığın acıyla, 
F      G    Dm  F    Am
Kokunla uyudum bu gece. 

Am
Pembe bir mezarlık gördüm rüyamda, 
Dm
Aşık cesetler şekerden tabutta, 
F         G        Dm
Gezinirken ciğerim doldu bir anda, 
Am
Çürük çilek kokusuyla. 

Am
Kalbi atan ölü bedenlerdi hepsi. 
Dm
Hepsinin başında birer ölüm perisi. 
F        G        Dm
Soluk birer pembe gül kokluyorlar, 
Am
Karanlıkta. 

              Am
Affet bu gece ölmek istedim. 
                   Dm
Pembe bir mezarlık olmak istedim. 
                 F   (E)   Dm                 
Karanlığı elimle bölmek istedim. 
Dm        Am
Seni çok özledim. 

                    Am
Çok istedim bu gece kendimi asmak. 
                Dm
Ellerimle kendi mezarımı kazmak. 
              F    (E)    Dm
Elimden gelen oturup evimde, 
Dm            Am
Sana şarkılar yazmak. 

             Ahmet YıLmaZzZ !


Pembe Mezarlık Akor, AkorMerkezi.com'da yayınlanmıştır.
http://www.akormerkezi.com


İçerik Kısa Linki:


Beğendiniz mi? Pembe Mezarlık Akor sayfasını Şimdi paylaşın:


Model - Pembe Mezarlık KULLANILAN AKORLAR (Beta)
Amx 0 2 2 1 0x 0 7 5 5 5x 3 2 2 1 0
Dmx 0 0 2 3 1
E0 2 2 1 0 0x 7 6 4 5 0
F1 3 3 2 1 1x 0 3 2 1 1x 3 3 2 1 1
Gx 10 12 12 12 103 2 0 0 0 33 2 0 0 3 3
Şarkıda kullanılan akorların farklı şekillerde basılışlarıdır. (Detaylı bilgi)

Pembe Mezarlık şarkısı için amatör kayıtları dinleyin: (Siz de Ekleyin)

Pembe Mezarlık Akor için Komoçotoko'dan Gelenler
Aramalar: model pembe mezarlık notaları,, ppembe mezrlik akor, pembe mezarlık nota gitar, model bu gece ölmek istedim, pembe mezarlık akorlar, pembe bir mezarlık olmak istedi, akor, MODEL affet bu gece ölmek istedim şarkı sözü, gitarla pembe mezarlığın en kolay çalınan hali, pembe bir mezar gördüm rüyamda şarkısı, model pembe mezarlık gitar çalımı
Model - Pembe Mezarlık için Kullanıcı Görüşleri

bnce 6/8 lik ritim deneyin


Bu Yoruma Cevap Ver
GiTarisT_MuSTi | 19 Ekim 2013 Cumartesi 20:14
31 Ocak 2012 Salı tarihinde hsnsa yazmıştı:
BUNLAR NE OLUYO BSI ANLAMADMM !!!

e--------------------------------------------------------------------
B---9----------9---12---11-----9-------------------------------------------
G--------8-----------------------------8---9---8--------------------------------
D----------------------------------------------------11--9--8--9--11--------------
E---------------------------------------------------------------------
A---------------------------------------------------------------------

Tab okumayi bilmiyor musun?


Bu Yoruma Cevap Ver
Omegu | 29 Ağustos 2013 Perşembe 18:21
30 Haziran 2013 Pazar tarihinde Gitarst Kamka yazmıştı:
Meraba ark lar Ben Ritmini Boyle atiom Bayada Guzel oluyo <AKyyKy> Guzel oludu Bana GOre Hos Akorlar Ve ritme uydurdum Tesekkur ederim
AKYYKY


Bu Yoruma Cevap Ver
Gitarst Kamka | 30 Haziran 2013 Pazar 10:14
Meraba ark lar Ben Ritmini Boyle atiom Bayada Guzel oluyo <AKyyKy> Guzel oludu Bana GOre Hos Akorlar Ve ritme uydurdum Tesekkur ederim


Bu Yoruma Cevap Ver
Gitarst Kamka | 30 Haziran 2013 Pazar 10:11
Solosunu çaldım izlemek isteyenler : http://www.youtube.com/watch?v=b-vaEvNEbRc


Bu Yoruma Cevap Ver
black_5555 | 20 Mayıs 2013 Pazartesi 09:07
Ton Eb2 dediği AP Tuner programında gitarınızı akort ediyorsunuz ya..programdan tonu Eb seçiceksiniz ordaki tellerin sırası standart E yerine bunları ayarlamalısınız : EbG#-C#-F#-Bb-Eb umarım anlatabildim


Bu Yoruma Cevap Ver
alpozal | 17 Şubat 2013 Pazar 21:36
23 Nisan 2012 Pazartesi tarihinde gitar triyaki yazmıştı:
doğru olabilir fakat canlı performansta böyle çalmıyorlar,daha çok bare var
performansta normal akorları bareli yapıyorlar zaten :D


Bu Yoruma Cevap Ver
SlymnYlcin | 05 Ocak 2013 Cumartesi 21:30
Arkadaslar Eb2 nin ne oldugunu özel mesaj olarak ata bilirmisiniz lütfen simdiden Tesekkür ederim


Bu Yoruma Cevap Ver
Glioblastoma | 10 Aralık 2012 Pazartesi 22:04
17 Temmuz 2012 Salı tarihinde Ground20 yazmıştı:
Şu ana kadar yazılan bütün yorumları denedim ama bence onları unutun hiç bi işe yaramazlar şarkı eşliğinde hangi akustik videoya bakarsanız bakın solo tarzı çalındıgını görüceksiniz ama bunu arpeje uyarlarsak aynen şu şekilde bütün akorları bareli olarak basın ardından her akorda p i [m-a] yani baş parmak işaret hemen ardından yüzükle orta parmak aynı anda çalın nakaratta ise ASYYAY şeklinde olucak (S sus demektir) hadi kolay gelsin
Sesin daha orjinal olması için P İ [MA] İ şeklinde de yapabilirsiniz


Bu Yoruma Cevap Ver
Ground20 | 17 Temmuz 2012 Salı 15:19
Şu ana kadar yazılan bütün yorumları denedim ama bence onları unutun hiç bi işe yaramazlar şarkı eşliğinde hangi akustik videoya bakarsanız bakın solo tarzı çalındıgını görüceksiniz ama bunu arpeje uyarlarsak aynen şu şekilde bütün akorları bareli olarak basın ardından her akorda p i [m-a] yani baş parmak işaret hemen ardından yüzükle orta parmak aynı anda çalın nakaratta ise ASYYAY şeklinde olucak (S sus demektir) hadi kolay gelsin


Bu Yoruma Cevap Ver
Ground20 | 17 Temmuz 2012 Salı 15:00
19 Şubat 2012 Pazar tarihinde azra_ yazmıştı:
RİTMİ 4/4 LÜK ARKADAŞLAR
ya 4/4 lük uymuyor şarkının akustiğini açınca okan ayrı oluyor bn ayrı oluyorum 4/4 lük deil


Bu Yoruma Cevap Ver
MoDeL_5 | 16 Temmuz 2012 Pazartesi 21:23
Dün gece terk etmeden önce. kısmında ritim parçalıyoruz sanırsım 4/4 olmuyor orda. naıl olucak tam olarak ?


Bu Yoruma Cevap Ver
eskimis | 11 Haziran 2012 Pazartesi 18:19
29 Mayıs 2012 Salı tarihinde rimednac yazmıştı:
04 Şubat 2012 Cumartesi tarihinde KaanTurgut41 yazmıştı:
arkadaslar bu parcanın arpej nasıl ?
kardesım gıt bıyerde utan .d
arpej=p-i-a-i-m-i-a-i


Bu Yoruma Cevap Ver
guitarrss | 01 Haziran 2012 Cuma 17:41
04 Şubat 2012 Cumartesi tarihinde KaanTurgut41 yazmıştı:
arkadaslar bu parcanın arpej nasıl ?
kardesım gıt bıyerde utan .d


Bu Yoruma Cevap Ver
rimednac | 29 Mayıs 2012 Salı 21:39
O kadar sorulmuş ben de sorayımda artık biri açıklasın Ton: Eb mi Eb2 mi? Eb2 ise biri açıklayabilir mi?


Bu Yoruma Cevap Ver
smtklc34 | 25 Nisan 2012 Çarşamba 14:24
Bana göre ritmi
AAY-YAY
ben böyle denedim oldu ama diğer ritimlede olabilir


Bu Yoruma Cevap Ver
ibocok kuzusu | 24 Nisan 2012 Salı 14:43
doğru olabilir fakat canlı performansta böyle çalmıyorlar,daha çok bare var


Bu Yoruma Cevap Ver
gitar triyaki | 23 Nisan 2012 Pazartesi 21:04
Eb2 yi anliyamadim ben ya birisi acikliyabilir mi?


Bu Yoruma Cevap Ver
gitarist_esra03 | 13 Nisan 2012 Cuma 11:26
ritim aayyyay atın daha iyi oluyo ama şarkının ilk kısmına göre atın bu ritmi


Bu Yoruma Cevap Ver
desperado81 | 11 Nisan 2012 Çarşamba 11:34
ey cemaat-i müslimin bunun bass tabını bilen-bulan yok mu?


Bu Yoruma Cevap Ver
basserr | 22 Mart 2012 Perşembe 01:54
04 Mart 2012 Pazar tarihinde kopuk yazmıştı:
DOĞRUSU BU OLSA GEREK ARKADAŞLAR :)

e--------------------------------------------------------------------
B---9----9----9---12---11-----9-------------------------------------------
G-------------------------------------8---9---8--------------------------------
D----------------------------------------------------11--9--8--9--11--------------
E---------------------------------------------------------------------
A---------------------------------------------------------------------


e--------------------------------------------------------------------
B---9---9---9---12---11----9-------------------------------------9---11---------
G--------------------------------------9---11---9---8---9---11------------------
D---------------------------------------------------------------------
E---------------------------------------------------------------------
A---------------------------------------------------------------------


e------------------------11----9--------------------------------------------
B---12---11---12---------------------12---11---9------------------------------
G----------------------------------------------------------11---9---8---9---11---9---8-
D---------------------------------------------------------------------
E---------------------------------------------------------------------
A---------------------------------------------------------------------
e---------------------------------------------------------------------
B---------------------------------------------------------------------
G--------/8-----------------------------------------------------------
D-------------11---9---8---9---11---8---------------------------
E---------------------------------------------------------------------
A--------------------------------------------------------------------

SONUDA BÖYLE ÇIKARDIM


e---------------------------------------------------------------------
B---------------------------------------------------------------------
G--------/8---------------------------8--------------------------------
D-------------11---9---8---9---11------------------------------
E---------------------------------------------------------------------
A--------------------------------------------------------------------

Böle olcak arkadaslar yanlıs yazmısım son kısım son 8 i vururken bent yapın bide


Bu Yoruma Cevap Ver
kopuk | 04 Mart 2012 Pazar 13:33
DOĞRUSU BU OLSA GEREK ARKADAŞLAR :)

e--------------------------------------------------------------------
B---9----9----9---12---11-----9-------------------------------------------
G-------------------------------------8---9---8--------------------------------
D----------------------------------------------------11--9--8--9--11--------------
E---------------------------------------------------------------------
A---------------------------------------------------------------------


e--------------------------------------------------------------------
B---9---9---9---12---11----9-------------------------------------9---11---------
G--------------------------------------9---11---9---8---9---11------------------
D---------------------------------------------------------------------
E---------------------------------------------------------------------
A---------------------------------------------------------------------


e------------------------11----9--------------------------------------------
B---12---11---12---------------------12---11---9------------------------------
G----------------------------------------------------------11---9---8---9---11---9---8-
D---------------------------------------------------------------------
E---------------------------------------------------------------------
A---------------------------------------------------------------------
e---------------------------------------------------------------------
B---------------------------------------------------------------------
G--------/8-----------------------------------------------------------
D-------------11---9---8---9---11---8---------------------------
E---------------------------------------------------------------------
A--------------------------------------------------------------------

SONUDA BÖYLE ÇIKARDIM




Bu Yoruma Cevap Ver
kopuk | 04 Mart 2012 Pazar 13:26
RİTMİ 4/4 LÜK ARKADAŞLAR


Bu Yoruma Cevap Ver
azra_ | 19 Şubat 2012 Pazar 20:35

E D#m7
Karanlığı elimle bölmek istedim..

bir burda ahengi tutturamadım.. ritimi nasıl ayarlamamız lazım arkdaşlar..


Bu Yoruma Cevap Ver
smert62 | 16 Şubat 2012 Perşembe 19:39
4/4luk esli ritim iyi gider gibi ama ikinci cumlede akor fazla rtmi tek olcu bile atsan yetisemiyorsun.aa ayay i da tutturamadm ben:/ayrica arpeji de ayni akorlarla mi yapacaz?


Bu Yoruma Cevap Ver
bnur | 14 Şubat 2012 Salı 18:53
Ya aa ayay biraz degisk degil mi?:/
4/4luk esliyle iyi gidiyor gibi ama ikinci cumlede bu kadar akora ritim uzun geliyor yani bnm ddgm ritimle akorlara yetisemiyorsun tek olcu atsan bile.:/


Bu Yoruma Cevap Ver
bnur | 14 Şubat 2012 Salı 18:49
bu şarkı 3/4 değil mi arkadaşlar


Bu Yoruma Cevap Ver
smert62 | 12 Şubat 2012 Pazar 13:48
Eb2 nasıl oluyo???Arkadaş anlatmış ama anlayamadm.Lütfen...


Bu Yoruma Cevap Ver
perfect_qirl | 12 Şubat 2012 Pazar 11:57
Hangi ritm kullanılıyor?


Bu Yoruma Cevap Ver
gitarist456 | 09 Şubat 2012 Perşembe 14:36
Hangi ritm kullanılıyor?


Bu Yoruma Cevap Ver
gitarist456 | 09 Şubat 2012 Perşembe 14:35
arkadaslar bu parcanın arpej nasıl ?


Bu Yoruma Cevap Ver
KaanTurgut41 | 04 Şubat 2012 Cumartesi 14:10
BUNLAR NE OLUYO BSI ANLAMADMM !!!

e--------------------------------------------------------------------
B---9----------9---12---11-----9-------------------------------------------
G--------8-----------------------------8---9---8--------------------------------
D----------------------------------------------------11--9--8--9--11--------------
E---------------------------------------------------------------------
A---------------------------------------------------------------------



Bu Yoruma Cevap Ver
hsnsa | 31 Ocak 2012 Salı 11:55
gerçekten bu siteye bayılıyorum arkadaş :D size çok teşekkürlerrrr :D


Bu Yoruma Cevap Ver
akordahisi | 27 Ocak 2012 Cuma 20:30
03 Ocak 2012 Salı tarihinde cREC yazmıştı:
arkadaşlar bu şarkıdaki tüm akorları bilmeme rağmen akor geçişlerini yapamıyorum yardımcı olabilecek akadaşlar varsa lütfen mesaj atsın
önce ellerini alıştırmak için çalmadan geçiş yapmalısın


Bu Yoruma Cevap Ver
benim sitem | 17 Ocak 2012 Salı 09:34
zaa


Bu Yoruma Cevap Ver
yesgsnofb | 15 Ocak 2012 Pazar 14:42
Arkadaşlar ben tab okuyamıyorum notalarını yazarmısınız şarkının.Teşekkürler


Bu Yoruma Cevap Ver
RockOver | 11 Ocak 2012 Çarşamba 21:42
yılsonunda orkestra bunu çalıyoruz çok sağolunnn :D


Bu Yoruma Cevap Ver
hayatımmüzik | 06 Ocak 2012 Cuma 21:18
arkadaşlar bu şarkıdaki tüm akorları bilmeme rağmen akor geçişlerini yapamıyorum yardımcı olabilecek akadaşlar varsa lütfen mesaj atsın


Bu Yoruma Cevap Ver
cREC | 03 Ocak 2012 Salı 18:58
28 Aralık 2011 Çarşamba tarihinde damla_gitar yazmıştı:
28 Ekim 2011 Cuma tarihinde ValenciaCg180 yazmıştı:
25 Eylül 2011 Pazar tarihinde beydama yazmıştı:
lan pembe mezarlıkmı olur bu şarkıyı kınıyorum mk:D
aynen
ne anlarsınız ki
komik


Bu Yoruma Cevap Ver
ValenciaCg180 | 28 Aralık 2011 Çarşamba 21:11
28 Ekim 2011 Cuma tarihinde ValenciaCg180 yazmıştı:
25 Eylül 2011 Pazar tarihinde beydama yazmıştı:
lan pembe mezarlıkmı olur bu şarkıyı kınıyorum mk:D
aynen
ne anlarsınız ki


Bu Yoruma Cevap Ver
damla_gitar | 28 Aralık 2011 Çarşamba 18:00
pembe mezarlık GPsini cıkaran varmı acaba ?


Bu Yoruma Cevap Ver
JosepHinex | 11 Aralık 2011 Pazar 20:19
04 Aralık 2011 Pazar tarihinde ElektroGitarcı9 yazmıştı:
27 Kasım 2011 Pazar tarihinde GunsNRoses96 yazmıştı:
27 Kasım 2011 Pazar tarihinde GunsNRoses96 yazmıştı:
e--------------------------------------------------------------------
B---9----------9---12---11-----9-------------------------------------------
G--------8-----------------------------8---9---8--------------------------------
D----------------------------------------------------11--9--8--9--11--------------
E---------------------------------------------------------------------
A---------------------------------------------------------------------


e--------------------------------------------------------------------
B---9-----------9---12---11----9-------------------------------------9---11---------
G--------9------------------------------9---11---9---8---9---11------------------
D---------------------------------------------------------------------
E---------------------------------------------------------------------
A---------------------------------------------------------------------


e------------------------11----9--------------------------------------------
B---12---11---12---------------------12---11---9------------------------------
G----------------------------------------------------------11---9---8---9---11---9---8-
D---------------------------------------------------------------------
E---------------------------------------------------------------------
A---------------------------------------------------------------------
Arkadaşlar buraya kadar oldu gerisini getiremedim :D
abi zaten bunu 2 kere çalınca solonun tamamı oluyo dewam ettirmene gerek yok :DD
yok son bitirişler yok o yüzden dedim :D


Bu Yoruma Cevap Ver
GunsNRoses96 | 07 Aralık 2011 Çarşamba 17:22
16 Ekim 2011 Pazar tarihinde FcKiNq yazmıştı:
ritim:AKYYKY

arpej ilk kitada : pimim
ben seni kınıyorum


Bu Yoruma Cevap Ver
buğra yiğit | 27 Kasım 2011 Pazar 15:12
27 Kasım 2011 Pazar tarihinde GunsNRoses96 yazmıştı:
e--------------------------------------------------------------------
B---9----------9---12---11-----9-------------------------------------------
G--------8-----------------------------8---9---8--------------------------------
D----------------------------------------------------11--9--8--9--11--------------
E---------------------------------------------------------------------
A---------------------------------------------------------------------


e--------------------------------------------------------------------
B---9-----------9---12---11----9-------------------------------------9---11---------
G--------9------------------------------9---11---9---8---9---11------------------
D---------------------------------------------------------------------
E---------------------------------------------------------------------
A---------------------------------------------------------------------


e------------------------11----9--------------------------------------------
B---12---11---12---------------------12---11---9------------------------------
G----------------------------------------------------------11---9---8---9---11---9---8-
D---------------------------------------------------------------------
E---------------------------------------------------------------------
A---------------------------------------------------------------------
Arkadaşlar buraya kadar oldu gerisini getiremedim :D


Bu Yoruma Cevap Ver
GunsNRoses96 | 27 Kasım 2011 Pazar 10:14
e--------------------------------------------------------------------
B---9----------9---12---11-----9-------------------------------------------
G--------8-----------------------------8---9---8--------------------------------
D----------------------------------------------------11--9--8--9--11--------------
E---------------------------------------------------------------------
A---------------------------------------------------------------------


e--------------------------------------------------------------------
B---9-----------9---12---11----9-------------------------------------9---11---------
G--------9------------------------------9---11---9---8---9---11------------------
D---------------------------------------------------------------------
E---------------------------------------------------------------------
A---------------------------------------------------------------------


e------------------------11----9--------------------------------------------
B---12---11---12---------------------12---11---9------------------------------
G----------------------------------------------------------11---9---8---9---11---9---8-
D---------------------------------------------------------------------
E---------------------------------------------------------------------
A---------------------------------------------------------------------


Bu Yoruma Cevap Ver
GunsNRoses96 | 27 Kasım 2011 Pazar 10:13
süper yaaa tam aradığım akor sonsuz teşekkür :))


Bu Yoruma Cevap Ver
LovePrincess07 | 25 Kasım 2011 Cuma 21:29
mükemmel olmuşş :)


Bu Yoruma Cevap Ver
Silent Shadow | 23 Kasım 2011 Çarşamba 18:05
Ahmet solosununda istiyoruz lütfen:)
eline sağlık... bu arada yine aradığım şarkının akorlarını sen çıkarmışsın teşekkür ettim:)


Bu Yoruma Cevap Ver
mystery-y | 20 Kasım 2011 Pazar 16:49
şu ortadaki soloyu verebilirmisiniz lütfen !!


Bu Yoruma Cevap Ver
FuckMyLuck | 11 Kasım 2011 Cuma 18:39
A .Y AYAY İlk iki kıtada güzel duruyor denenebilir.


Bu Yoruma Cevap Ver
Gitaristimmm | 09 Kasım 2011 Çarşamba 10:39
Helal olsun


Bu Yoruma Cevap Ver
Gitaristimmm | 09 Kasım 2011 Çarşamba 10:33
Süpeeerr :D


Bu Yoruma Cevap Ver
clarissguitar | 05 Kasım 2011 Cumartesi 10:23
04 Eylül 2011 Pazar tarihinde nicik yazmıştı:
baska verdigin sarkılarda da yazmıslardı yine tekrar ediyorum LetMeLoveYou yazdıysa dogrudur :)
http://www.youtube.com/watch?v=kETCXQqqpSs .. burdan çıkarmaya çalış :D


Bu Yoruma Cevap Ver
GibsonLPaul | 28 Ekim 2011 Cuma 20:45
25 Eylül 2011 Pazar tarihinde beydama yazmıştı:
lan pembe mezarlıkmı olur bu şarkıyı kınıyorum mk:D
aynen


Bu Yoruma Cevap Ver
ValenciaCg180 | 28 Ekim 2011 Cuma 16:36
güzel kapo 5 le daha iyi oluo


Bu Yoruma Cevap Ver
aybisko12 | 28 Ekim 2011 Cuma 14:46
16 Ekim 2011 Pazar tarihinde FcKiNq yazmıştı:
ritim:AKYYKY

arpej ilk kitada : pimim
pardon arpej pimi


Bu Yoruma Cevap Ver
FcKiNq | 16 Ekim 2011 Pazar 16:00
ritim:AKYYKY

arpej ilk kitada : pimim


Bu Yoruma Cevap Ver
FcKiNq | 16 Ekim 2011 Pazar 15:58
Mesela Am diyor ya normalde 5. perdeye bare basıp em yapıyoruz ya bir perde aşağıya kaydırıyorsun 4.perdeden em yapıyosun hepsini bir perde kalınlaştırıyorsun bütün akorları transpoze etmen lazım yani ... Dm içinde 5. perdeden am yapıyoruzya 4. perdeden am yapacaksın.. Yardımcı olabilmişimdir inş. :)


Bu Yoruma Cevap Ver
gutla95 | 21 Eylül 2011 Çarşamba 18:59
Eb2 göre nasıl akord etcez onu söylermisin ?


Bu Yoruma Cevap Ver
KıRıK_KaLeM_56 | 10 Eylül 2011 Cumartesi 17:07
baska verdigin sarkılarda da yazmıslardı yine tekrar ediyorum LetMeLoveYou yazdıysa dogrudur :)


Bu Yoruma Cevap Ver
nicik | 04 Eylül 2011 Pazar 19:01
solosunu atın lütfenn


Bu Yoruma Cevap Ver
dreams_93 | 23 Ağustos 2011 Salı 00:13
son kararım ritimde : AA yy ay Arpej : Pimimi


Bu Yoruma Cevap Ver
Brkdmrcn | 24 Haziran 2011 Cuma 22:54
ben kapo 5 le çalıyorum ve gayet güzel oluyo ritimde AA ayay arkadaşın dediği gibi arpej P imi


Bu Yoruma Cevap Ver
Brkdmrcn | 24 Haziran 2011 Cuma 21:52
ilk paragrafdaki arpej: p ima
Genel Ritim: AA ayay


Bu Yoruma Cevap Ver
Constant1ne | 15 Haziran 2011 Çarşamba 13:24
Helal olsun :D yine letmeloveyou ve yine harika akorlar:D... takipciniz :D


Bu Yoruma Cevap Ver
buchos | 25 Mayıs 2011 Çarşamba 20:43


Siz de Görüş Bildirin

Yorum yazma alanı Akor Merkezi üyelerine özel bir bölümdür. (Giriş Yap / Üye Ol / Şifremi Hatırlat)


PAYLAŞ

Reklam



Anket
erenmgursoy soruyor:
Digitech distortion pedallarindan hangisi daha iyi ?








Sonuçlar | Sonuçlar & Yorumlar
Yeni Anket | Anketler




Reklam


Radyo Dinle
AkorMerkezi.com © 2014
İletişim - Gizlilik Politikası - Kullanım Koşulları - Kurallar - Son Yorumlar - Rastgele

GitarAkor.com kolonisidir. Derleme 0,12 saniye.