Akor Tab Söz Çeviri Anasayfası
Akor|Tab|Söz|Nota Arşivi
Gitar Akorları | Tab,Söz ve Nota Anasayfası | En Yeni Şarkılar | En Popüler Şarkılar | Akor Cetveli

Bilgiler
 
Seslendiren ve Şarkı: Model - Pembe Mezarlık
Biçim: TAB - HİÇBİRİ
Tarih: 24 Mart 2012 Cumartesi
Gönderen: srcnktn
Toplam Okuyan: 23.513 kişi
Bu Ay Okuyan: 485 kişi
Bu Hafta Okuyan: 7 kişi
 
Beğendiniz mi? Pembe Mezarlık Tab sayfasını Şimdi paylaşın:

Model - Pembe Mezarlık - Tab


Puanlama:
 (8 kişi)

Pembe Mezarlık şarkısının diğer versiyonlarına bakın >>

Metin boyutu: ( + Büyült ) ( - Küçült)   
E-------7-6-----------------------7-6------------6-7-6-7-11-9-7-6-----------
B-9-7-9----------------------9-7-9-----7-----7-9-----------------9-7---7----
G----------8-9-8-6------6------------9--9-8-9-----------------------8-9-9-8-
D-----------------9-8-9-----------------------------------------------------
A---------------------------------------------------------------------------
E---------------------------------------------------------------------------

E--------------
B--------------
G-8-6------6-8-
D----9-8-9-----
A--------------
E--------------


E-------7-6-----------------------7-6------------6-7-6-7-11-9-7-6-----------
B-9-7-9----------------------9-7-9-----7-----7-9-----------------9-7---7-9--
G----------8-9-8-6------6------------9--9-8-9-----------------------8-9-9---
D-----------------9-8-9-----------------------------------------------------
A---------------------------------------------------------------------------
E---------------------------------------------------------------------------
Pembe Mezarlık Tab, AkorMerkezi.com'da yayınlanmıştır.
http://www.akormerkezi.com


İçerik Kısa Linki:


Beğendiniz mi? Pembe Mezarlık Tab sayfasını Şimdi paylaşın:


Pembe Mezarlık şarkısı için amatör kayıtları dinleyin: (Siz de Ekleyin)

Pembe Mezarlık Tab için Komoçotoko'dan Gelenler
Aramalar: model pembe mezar solo notaları, pembe mezar solo cover, model pembe mezar solo, pembe mezarlik solo, model pembe mezarlık akor, pembe mezarik tab, model pembe mezar akor, model pembe mezar tab, Pembe mezarlık arpej, pembe mezarlık model
Model - Pembe Mezarlık için Kullanıcı Görüşleri

olmuş ama bazı yerleri yanlış


Bu Yoruma Cevap Ver
gitaristero | 29 Aralık 2012 Cumartesi 10:39


Siz de Görüş Bildirin

Yorum yazma alanı Akor Merkezi üyelerine özel bir bölümdür. (Giriş Yap / Üye Ol / Şifremi Hatırlat)


PAYLAŞ

Reklam



Anket
aLcoLiq soruyor:
Gitar çalmaya başlarken en çok hangi tarzda çalmak istiyordunuz?










Sonuçlar | Sonuçlar & Yorumlar
Yeni Anket | Anketler




Reklam


Radyo Dinle
AkorMerkezi.com © 2014
İletişim - Gizlilik Politikası - Kullanım Koşulları - Kurallar - Son Yorumlar - Rastgele

GitarAkor.com kolonisidir. Derleme 0,05 saniye.