Akor Tab Söz Çeviri Anasayfası
Akor|Tab|Söz|Nota Arşivi
Gitar Akorları | Tab,Söz ve Nota Anasayfası | En Yeni Şarkılar | En Popüler Şarkılar | Akor Cetveli

Bilgiler
 
Seslendiren ve Şarkı: Nick Jonas - Give Love A Try
Biçim: TAB - HİÇBİRİ
Tarih: 25 Eylül 2011 Pazar
Gönderen: gitke
Toplam Okuyan: 6.064 kişi
Bu Ay Okuyan: 29 kişi
Bu Hafta Okuyan: 4 kişi
 
Beğendiniz mi? Give Love A Try Tab sayfasını Şimdi paylaşın:

Nick Jonas - Give Love A Try - Tab


Puanlama:
 (3 kişi)

Give Love A Try şarkısının diğer versiyonlarına bakın >>

Metin boyutu: ( + Büyült ) ( - Küçült)   

Nick Jonas-Give Love Atry



E--------------------|
B--------------------|
G--------4--5--------|
D--------------------| x2
A---3----------------|
E--------------------| (intro)

E-------------------------------------------------------------------|
B-------------------------------------------------------------------|
G-------4--5-------------4--5----------------4--5-----------4--5----|
D-------------------------------------------------------------------|
A---3----------------3-------------------3--------------3-----------|
E-------------------------------------------------------------------|

You, You're like driving on a Sunday / You, You're like taking off on Monday

E-------------------------------------------|
B-------------------------------------------|
G-------5--4-----------------4--2-----------|
D-------------------------------------------|
A--3---------------------3------------------|
E-------------------------------------------|

You / You're like a dream / Dream come true.

E-------------------------|
B-------------------------|
G-------------4--5--------|
D-------------------------| x2
A-----3-------------------|
E-------------------------|

E-------------------------------------------------------------------|
B-------------------------------------------------------------------|
G-------4--5-------------4--5----------------4--5-----------4--5----|
D-------------------------------------------------------------------|
A---3--------------3-------------------3--------------3-------------|
E-------------------------------------------------------------------|

I, Just a face you never notice / I, Just trying to be honest with myself,

E----------------------------------------|
B----------------------------------------|
G--------5--4----------------4----2------|
D----------------------------------------|
A---3-------------------3----------------|
E----------------------------------------|

 With you        /      With the world.

E---------------------|
B---------------------|
G---------4---5-------|
D---------------------| x2
A---3-----------------|
E---------------------|

(Chorus)
E-----------------------------------------------------------------|
B-----------------------------------------------------------------|
G-------5-5-------------------------3-3---------------------------|
D-------5-5-----------5-5-----------3-3--------7-7----------------|
A---3-----------------5-5--------1-------------7-7----------------|
E-----------------3------------------------5----------------------|

You might think / That I'm a fool for falling over you

E------------------------------|
B------------------------------|
G-------5-5--------------------|
D-------5-5------------5-5-----|
A---3------------------5-5-----|
E------------------3-----------|

So tell me what can I do / To prove to you


E---------------------------------------------------------|
B---------------------------------------------------------|
G--------3-3----------------------------------------------|
D--------3-3------------------7-7---------------6-6-------|
A----1------------------------7-7---------------6-6-------|
E-------------------------5------------------4------------|

That's it's not so hard to do / Give love a try,

E------------------------------------------------------------------------|
B------------------------------------------------------------------------|
G-------5-5--------------------------------------------------------------|
D-------5-5------------5-5---------------------------7-7------------6~---|
A---3------------------5-5---------------------------7-7------------6~---|
E------------------3------------------------------5-----------------4~---|

One more time / Cause you know that I'm on your side / Give love a try,


E---------------------------------------------------------------------------|
B---------------------------------------------------------------------------|
G-----------------4--5-------------4--5----------------4--5-----------4--5--|
D---------------------------------------------------------------------------|
A--------------3----------------3-------------------3--------------3--------|
E---------------------------------------------------------------------------|

 One more time /

E----------------------------------------|
B----------------------------------------|
G-------5--4-----------------4--2--------|
D----------------------------------------|
A--3---------------------3---------------|
E----------------------------------------|

Yeahyeah                   Oooh

E----------------------------------|
B----------------------------------|
G-------4--5-------------4--5------|
D----------------------------------|
A---3----------------3-------------|
E----------------------------------|

alıntıdır umarım beğenirsiniz nete videosu var
Give Love A Try Tab, AkorMerkezi.com'da yayınlanmıştır.
http://www.akormerkezi.com


İçerik Kısa Linki:


Beğendiniz mi? Give Love A Try Tab sayfasını Şimdi paylaşın:


Give Love A Try Tab için Komoçotoko'dan Gelenler
Aramalar: nick jonas give love a try gitar akorları, nick jonas give love a try notaları, jonas brothers give love a try şarkı notaları, gıve love a try gitar tabları, give love a try gitar akorları, give love atry gitar calinisi, jonas give love a try notaları, give love a try notaları, nick jonas give love a try gitar notaları, nick jonas
Nick Jonas - Give Love A Try için Kullanıcı Görüşleri

G---------4--------4h5------------4-------------------4h5---------------------4----------------4h5------------4------------4h5------------5---------------5p4
D-
A-----3-------3-------------3------------------3---------------------0---------------0-------------------0---------------0-
E-------------------------------------------------------------------------------------------------------------------------------------------3---------------3


G--------------2-------------2p0
D----
A----
E-------1-----------1

Daha iyi oluyo


Bu Yoruma Cevap Ver
K1ngcar3n | 19 Ekim 2011 Çarşamba 21:59


Siz de Görüş Bildirin

Yorum yazma alanı Akor Merkezi üyelerine özel bir bölümdür. (Giriş Yap / Üye Ol / Şifremi Hatırlat)


PAYLAŞ

Reklam



Anket
xcemx soruyor:
Sizce ilk gitar fiyat bakımından ne kadar olmalı?










Sonuçlar | Sonuçlar & Yorumlar
Yeni Anket | Anketler






Radyo Dinle
AkorMerkezi.com © 2014
İletişim - Gizlilik Politikası - Kullanım Koşulları - Kurallar - Son Yorumlar - Rastgele

GitarAkor.com kolonisidir. Derleme 0,03 saniye.