Akor Tab Söz Çeviri Anasayfası
Akor|Tab|Söz|Nota Arşivi
Gitar Akorları | Tab,Söz ve Nota Anasayfası | En Yeni Şarkılar | En Popüler Şarkılar | Akor Cetveli

Bilgiler
 
Seslendiren ve Şarkı: Nilüfer - Caddelerde Rüzgar
Biçim: TAB -
Tarih: 12 Mayıs 2007 Cumartesi
Gönderen: experxxx1
Toplam Okuyan: 147.921 kişi
Bu Ay Okuyan: 4.339 kişi
Bu Hafta Okuyan: 623 kişi
 
Beğendiniz mi? Caddelerde Rüzgar Tab sayfasını Şimdi paylaşın:
DİKKAT!
Caddelerde Rüzgar Tab sayfasını düzgün görüntüleyemiyor olabilirsiniz.
Eğer böyle bir sıkıntınız varsa tıklayın.

Nilüfer - Caddelerde Rüzgar - Tab


Puanlama:
 (122 kişi)

Caddelerde Rüzgar şarkısının diğer versiyonlarına bakın >>

Metin boyutu: ( + Büyült ) ( - Küçült)   

e--------------5--------------------------------------------------------
B--5555-6-5-555-5-3333-5-3-333-5-3-1111-3-1-111-3-1-0000-1-0-5-3-1-0----
G--------------------------------------------------------------------2--
D-----------------------------------------------------------------------
A-----------------------------------------------------------------------
E-----------------------------------------------------------------------


arkadaşlar şarkının orjinali arpejdir.ama bu şekildede hoş oldu sanırım.sizce nasıl yorumlarınızı bekliyorum .
daha güzel şeylerde gelecek.
Caddelerde Rüzgar Tab, AkorMerkezi.com'da yayınlanmıştır.
http://www.akormerkezi.com


İçerik Kısa Linki:


Beğendiniz mi? Caddelerde Rüzgar Tab sayfasını Şimdi paylaşın:



Caddelerde Rüzgar Tab için Komoçotoko'dan Gelenler
Aramalar: cadelerde rüzgar şarkısı gitar, caddelerde rüzgar klasik gitar tabı, caddelerde+rüzgar+gitar+notaları+, caddelerde rüzgar en kolay akor, Nilüfer - Caddelerde Rüzgar tab, caddelerde tek tel tab, caddelerde rüzgar gitar ezgi, bahcelerde ruzgar sayi notalari, tek telden caddelerde rüzgar çal, caddelerde rüzgar akor merkezi
Nilüfer - Caddelerde Rüzgar için Kullanıcı Görüşleri

benim kendi uydurdugum bir tab amma guzel olmuw...
E...7.7.7.7.8.7...7.7.7.8.7...5.5.5.5.6.5...5.5.5.6.5...3.3.3.3.4.3...3.3.3.4.3...1.1.1.1.2.1...1.1.1.2.1.0.....3.4.5.6...7.7.7.7.0.7..7.7.7.0.7...5.5.5.5.0.5..5.5.5.0.5...3.3.3.3.0.3..3.3.3.0.3...1.1.1.1.0.1..1.1.1.0.1.0... ve sonda elinizi 1-den 12 ye kadar kaydirarak cabub bir sekilde E telini 4 kez vurun


Bu Yoruma Cevap Ver
Alidjanoff | 18 Temmuz 2014 Cuma 21:20
nası çalınıyo böyle??


Bu Yoruma Cevap Ver
DLbgmDL | 19 Kasım 2013 Salı 21:53
e--5555-6-5-555-8-5-3333-5-3-333-5-3-1111-3-1-111-3-1-0000-1-000-1 ----------
B-----------------------------------------------------------------------------------------3-----
G-----------------------------------------------------------------------
D-----------------------------------------------------------------------
A-----------------------------------------------------------------------
E-----------------------------------------------------------------------
Ne derseniz deyin bence doğrusu bu




Bu Yoruma Cevap Ver
KuRNaZ52 | 06 Ağustos 2013 Salı 23:37
abi sunları nasıl yapıcağımı bilmiyorum yardım edin lütfen
e--------------5--------------------------------------------------------
B--5555-6-5-555-5-3333-5-3-333-5-3-1111-3-1-111-3-1-0000-1-0-5-3-1-0----
G--------------------------------------------------------------------2--
D-----------------------------------------------------------------------
A-----------------------------------------------------------------------
E-----------------------------------------------------------------------


nolursunuz



Bu Yoruma Cevap Ver
batuhan07 | 11 Mayıs 2013 Cumartesi 21:06
Doğru bu ellerine sağlık kardeşim yeni başlayan kardeşlerimiz için ideal ...


Bu Yoruma Cevap Ver
zAzaa | 30 Mart 2013 Cumartesi 19:26
07 Ocak 2012 Cumartesi tarihinde feri1453 yazmıştı:
E......0000.1.0..5..0...................................................
G......3333.0..333..0..3......1111..3..1...0000.1..000..1...0..
D...................................................2......................

DOĞRUSU BUU...!
3. tel neysede 1 ve 2de bisürü vuruş alt alta yazmışsın akora benzemiş nasıl olcak bunu doğrusu ?¿ :S


Bu Yoruma Cevap Ver
Z0/\/\B!E | 16 Aralık 2012 Pazar 20:06
her türlü çalınabilir arkadaşlar bu sarkı


Bu Yoruma Cevap Ver
Sm3aGoLL | 27 Ekim 2012 Cumartesi 12:18
03 Aralık 2011 Cumartesi tarihinde birtanesi__ yazmıştı:
E 7-7-7-7--8-7---7-7-7-7--8-7---5-5-5-5-7-5---5-5-5-7-5---3-3-3-5-3---3-3-3-5-3---2-2-2-3-2---2-2-2-3-2-0
G------------------------------------------------------------------------------------------------------
D------------------------------------------------------------------------------------------------------
B------------------------------------------------------------------------------------------------------
A------------------------------------------------------------------------------------------------------
E------------------------------------------------------------------------------------------------------
ohaaaaa olm bu çok gzzl en güzeli bu dierleri boş beleş hll kardeşim nerden bulduysan


Bu Yoruma Cevap Ver
yh1907 | 26 Haziran 2012 Salı 10:01
<ol>
<li>0-0-0-0-1-0-0-0-0-5-0-----------0-------------0</li>
<li><em>-----------------------------3-3-3-3---3-3-3-3---3-1-1-1-1-3-1-1-1-1-3-1-0-0-0-0-1-0-0-0-0-1-0</em></li>
<li><em>--------------------------------------------------------------------------------------------------------------------2</em></li>
</ol>
<p><br/>
<br/>
Umarım doğrudur ben hep b&ouml;yle &ccedil;alıyodum arkadaşlar</p>


Bu Yoruma Cevap Ver
TaRaK 53 | 09 Haziran 2012 Cumartesi 13:30
03 Aralık 2011 Cumartesi tarihinde birtanesi__ yazmıştı:
E 7-7-7-7--8-7---7-7-7-7--8-7---5-5-5-5-7-5---5-5-5-7-5---3-3-3-5-3---3-3-3-5-3---2-2-2-3-2---2-2-2-3-2-0
G------------------------------------------------------------------------------------------------------
D------------------------------------------------------------------------------------------------------
B------------------------------------------------------------------------------------------------------
A------------------------------------------------------------------------------------------------------
E------------------------------------------------------------------------------------------------------
güzel olmuş.Teşekkür ederim


Bu Yoruma Cevap Ver
küçük enes | 31 Mart 2012 Cumartesi 21:12
hangisi daha doğru ya aklım karıştı :(


Bu Yoruma Cevap Ver
asibeybi | 22 Şubat 2012 Çarşamba 19:18
arkadaşlar biri şarkının arpejini verebilirmi ???


Bu Yoruma Cevap Ver
rock_20 | 11 Ocak 2012 Çarşamba 13:16
E......0000.1.0..5..0...................................................
G......3333.0..333..0..3......1111..3..1...0000.1..000..1...0..
D...................................................2......................

DOĞRUSU BUU...!


Bu Yoruma Cevap Ver
feri1453 | 07 Ocak 2012 Cumartesi 20:26
E 7-7-7-7--8-7---7-7-7-7--8-7---5-5-5-5-7-5---5-5-5-7-5---3-3-3-5-3---3-3-3-5-3---2-2-2-3-2---2-2-2-3-2-0
G------------------------------------------------------------------------------------------------------
D------------------------------------------------------------------------------------------------------
B------------------------------------------------------------------------------------------------------
A------------------------------------------------------------------------------------------------------
E------------------------------------------------------------------------------------------------------


Bu Yoruma Cevap Ver
birtanesi__ | 03 Aralık 2011 Cumartesi 14:06
güzel olmamışş yanlışş :/


Bu Yoruma Cevap Ver
hayatımmüzik | 28 Kasım 2011 Pazartesi 16:08
E----------------------------- 7---------------------------------------------------------------------------------------------------------2-----2-0---
G--7-7-7-7--8-7---7-7-7------7-----5-5-5-5--7-5----5-5-5--7-5-----3-3-3-3--5-3--3-3-3--5-3---2-2-2-2--3-2---2-2-2-2-------------3-2-0


Bu Yoruma Cevap Ver
K1ngcar3n | 19 Ekim 2011 Çarşamba 21:52
01 Nisan 2011 Cuma tarihinde kaos32 yazmıştı:
süper olmus eline saglık
bu doğru olanı arkadaşlar kesinlikle bu doğru ritlere bakın bii


Bu Yoruma Cevap Ver
loqum | 04 Ekim 2011 Salı 20:43
arkadaşlar bnm profilimde de var full version isterseniiz ordan bakın


Bu Yoruma Cevap Ver
gitke | 26 Haziran 2011 Pazar 18:09
07 Haziran 2011 Salı tarihinde xaerodegree yazmıştı:
13 Nisan 2011 Çarşamba tarihinde arriba yazmıştı:
02 Nisan 2010 Cuma tarihinde dgfdhdfgh yazmıştı:
bende böle yaptım hos oldu

E-------------------------7----------------------------------------------------------------------------
G 7-7-7-7- -8---7-7-7---7----5-5-5-5-7----3-3-3-3-5---3-3-3-5--2-2-2-2-3----2-2-2-3-2-0
D------------------------------------------------------------------------------------------------------
B------------------------------------------------------------------------------------------------------
A------------------------------------------------------------------------------------------------------
E------------------------------------------------------------------------------------------------------
E----------------------------- 7-----------------------------------
G--7-7-7-7--8-7---7-7-7------7-----5-5-5-5--7-5----5-5-5--7-5-----3-3-3-3--5-3--3-3-3--5-3---2-2-2-2--3-2---2-2-2--3-2-0
D
B
A
E
Boyle daha guzelllll =)
Böyle bir deneyin:

E---------------------7--------------------------------------------------------------2---2-0-----------
G 7-7-7-7-8-7---7-7-7---7--5-5-5-5-7-5---5-5-5-7-5--3-3-3-3-5-3---3-3-3-5-3--2-2-2-2---------3-2-0-----
D------------------------------------------------------------------------------------------------------
B------------------------------------------------------------------------------------------------------
A------------------------------------------------------------------------------------------------------
E------------------------------------------------------------------------------------------------------

Notepad'e yapıştırın, burada düzgün görünmedi.. :/


Bu Yoruma Cevap Ver
xaerodegree | 07 Haziran 2011 Salı 19:45
13 Nisan 2011 Çarşamba tarihinde arriba yazmıştı:
02 Nisan 2010 Cuma tarihinde dgfdhdfgh yazmıştı:
bende böle yaptım hos oldu

E-------------------------7----------------------------------------------------------------------------
G 7-7-7-7- -8---7-7-7---7----5-5-5-5-7----3-3-3-3-5---3-3-3-5--2-2-2-2-3----2-2-2-3-2-0
D------------------------------------------------------------------------------------------------------
B------------------------------------------------------------------------------------------------------
A------------------------------------------------------------------------------------------------------
E------------------------------------------------------------------------------------------------------
E----------------------------- 7-----------------------------------
G--7-7-7-7--8-7---7-7-7------7-----5-5-5-5--7-5----5-5-5--7-5-----3-3-3-3--5-3--3-3-3--5-3---2-2-2-2--3-2---2-2-2--3-2-0
D
B
A
E
Boyle daha guzelllll =)
Böyle bir deneyin:

E---------------------7--------------------------------------------------------------2---2-0-----------
G 7-7-7-7-8-7---7-7-7---7--5-5-5-5-7-5---5-5-5-7-5--3-3-3-3-5-3---3-3-3-5-3--2-2-2-2---------3-2-0-----
D------------------------------------------------------------------------------------------------------
B------------------------------------------------------------------------------------------------------
A------------------------------------------------------------------------------------------------------
E------------------------------------------------------------------------------------------------------



Bu Yoruma Cevap Ver
xaerodegree | 07 Haziran 2011 Salı 19:43
e-------------------------------------------------------------------------------------
B-------------------------------------------------------------------------------------
G-------------------------------------------------------------------------------------
D-------------------------------------------------------------------------------------
A--------------------------3-3-3-3-5-3--3-3-3-5-3-1-1-1-1-3-1--1-1-1-3-1-----
E-0-0-0-0-1-0-0-0-5-0-------------------------------------------------------------

e-----------------------------------------------------------------------------------
B-----------------------------------------------------------------------------------
G----------------------------------------------------------------------------------
D----------------------------2-----------------------------------------------------
A-0-0-0-0-1-0-0-0-0-1-0--------------------------------------------------------
E-----------------------------------------------------------------------------------

bende kendiminkini koydum boyle calıyorum gayet güzel dostum


Bu Yoruma Cevap Ver
suloman573 | 01 Haziran 2011 Çarşamba 22:26
02 Nisan 2010 Cuma tarihinde dgfdhdfgh yazmıştı:
bende böle yaptım hos oldu

E-------------------------7----------------------------------------------------------------------------
G 7-7-7-7- -8---7-7-7---7----5-5-5-5-7----3-3-3-3-5---3-3-3-5--2-2-2-2-3----2-2-2-3-2-0
D------------------------------------------------------------------------------------------------------
B------------------------------------------------------------------------------------------------------
A------------------------------------------------------------------------------------------------------
E------------------------------------------------------------------------------------------------------
E----------------------------- 7-----------------------------------
G--7-7-7-7--8-7---7-7-7------7-----5-5-5-5--7-5----5-5-5--7-5-----3-3-3-3--5-3--3-3-3--5-3---2-2-2-2--3-2---2-2-2--3-2-0
D
B
A
E
Boyle daha guzelllll =)


Bu Yoruma Cevap Ver
arriba | 13 Nisan 2011 Çarşamba 20:38
süper olmus eline saglık


Bu Yoruma Cevap Ver
kaos32 | 01 Nisan 2011 Cuma 16:41
12 Ağustos 2010 Perşembe tarihinde John :] yazmıştı:
güzel ama tek miş gibi geliyor. bence şöyle olabilirdi

---0--0--0--0--0--1--0------0--0--0--0--5--0
--------------------------------------------------
-------------------------------------------------
------------------------------------------------
---0---------------------0--------------------
----------------------------------------------

-----------------0-------------------0--
---3--3--3--3----3------3--3--3-----3
-----------------------------------------
--0------------------0-----------------
----------------------------------------
---------------------------------------


-------------------------------------------
--1--1--1--1--3--1---------1--1--1--3--1
--------------------------------------------
--------------------------------------------
--0---------------------0-----------------
---------------------------------------

----------------0--------0------------
--0--0--0--0--------------3--1--0--
-------------------------------------2
-------------------------------------
------------------------------------
--0--------------0----------------

ßöyle daha güzel olabilirdi
mükemmel olmuş bende yeni başladım gitar çalmaya benim için de daha kolay .


Bu Yoruma Cevap Ver
haluk969 | 27 Mart 2011 Pazar 08:59
19 Kasım 2010 Cuma tarihinde Crazy Giutar yazmıştı:
12 Kasım 2010 Cuma tarihinde 2.kur_adamı yazmıştı:
12 Ağustos 2010 Perşembe tarihinde John :] yazmıştı:
güzel ama tek miş gibi geliyor. bence şöyle olabilirdi

---0--0--0--0--0--1--0------0--0--0--0--5--0
--------------------------------------------------
-------------------------------------------------
------------------------------------------------
---0---------------------0--------------------
----------------------------------------------

-----------------0-------------------0--
---3--3--3--3----3------3--3--3-----3
-----------------------------------------
--0------------------0-----------------
----------------------------------------
---------------------------------------


-------------------------------------------
--1--1--1--1--3--1---------1--1--1--3--1
--------------------------------------------
--------------------------------------------
--0---------------------0-----------------
---------------------------------------

----------------0--------0------------
--0--0--0--0--------------3--1--0--
-------------------------------------2
-------------------------------------
------------------------------------
--0--------------0----------------

ßöyle daha güzel olabilirdi
evet boyle daha güzel
bu daha iyi :)
Evet bu daha iyi olmuş ama yeni başlayanlar için (benim gibi) yukardaki daha iyi.


Bu Yoruma Cevap Ver
Guitar7 | 20 Şubat 2011 Pazar 18:38
çok güzel olmuş ellerine sağlık


Bu Yoruma Cevap Ver
pasific | 26 Aralık 2010 Pazar 12:41
12 Kasım 2010 Cuma tarihinde 2.kur_adamı yazmıştı:
12 Ağustos 2010 Perşembe tarihinde John :] yazmıştı:
güzel ama tek miş gibi geliyor. bence şöyle olabilirdi

---0--0--0--0--0--1--0------0--0--0--0--5--0
--------------------------------------------------
-------------------------------------------------
------------------------------------------------
---0---------------------0--------------------
----------------------------------------------

-----------------0-------------------0--
---3--3--3--3----3------3--3--3-----3
-----------------------------------------
--0------------------0-----------------
----------------------------------------
---------------------------------------


-------------------------------------------
--1--1--1--1--3--1---------1--1--1--3--1
--------------------------------------------
--------------------------------------------
--0---------------------0-----------------
---------------------------------------

----------------0--------0------------
--0--0--0--0--------------3--1--0--
-------------------------------------2
-------------------------------------
------------------------------------
--0--------------0----------------

ßöyle daha güzel olabilirdi
evet boyle daha güzel
bu daha iyi :)


Bu Yoruma Cevap Ver
Crazy Giutar | 19 Kasım 2010 Cuma 13:46
12 Ağustos 2010 Perşembe tarihinde John :] yazmıştı:
güzel ama tek miş gibi geliyor. bence şöyle olabilirdi

---0--0--0--0--0--1--0------0--0--0--0--5--0
--------------------------------------------------
-------------------------------------------------
------------------------------------------------
---0---------------------0--------------------
----------------------------------------------

-----------------0-------------------0--
---3--3--3--3----3------3--3--3-----3
-----------------------------------------
--0------------------0-----------------
----------------------------------------
---------------------------------------


-------------------------------------------
--1--1--1--1--3--1---------1--1--1--3--1
--------------------------------------------
--------------------------------------------
--0---------------------0-----------------
---------------------------------------

----------------0--------0------------
--0--0--0--0--------------3--1--0--
-------------------------------------2
-------------------------------------
------------------------------------
--0--------------0----------------

ßöyle daha güzel olabilirdi
evet boyle daha güzel


Bu Yoruma Cevap Ver
2.kur_adamı | 12 Kasım 2010 Cuma 15:08
güzel hacı saoğl


Bu Yoruma Cevap Ver
Elektro Guitar | 31 Ekim 2010 Pazar 13:26
güzel ama tek miş gibi geliyor. bence şöyle olabilirdi

---0--0--0--0--0--1--0------0--0--0--0--5--0
--------------------------------------------------
-------------------------------------------------
------------------------------------------------
---0---------------------0--------------------
----------------------------------------------

-----------------0-------------------0--
---3--3--3--3----3------3--3--3-----3
-----------------------------------------
--0------------------0-----------------
----------------------------------------
---------------------------------------


-------------------------------------------
--1--1--1--1--3--1---------1--1--1--3--1
--------------------------------------------
--------------------------------------------
--0---------------------0-----------------
---------------------------------------

----------------0--------0------------
--0--0--0--0--------------3--1--0--
-------------------------------------2
-------------------------------------
------------------------------------
--0--------------0----------------

ßöyle daha güzel olabilirdi


Bu Yoruma Cevap Ver
John :] | 12 Ağustos 2010 Perşembe 11:58
7 we 8 le daa ii


Bu Yoruma Cevap Ver
dgfdhdfgh | 15 Temmuz 2010 Perşembe 18:39
02 Nisan 2010 Cuma tarihinde dgfdhdfgh yazmıştı:
bende böle yaptım hos oldu

E-------------------------7----------------------------------------------------------------------------
G 7-7-7-7- -8---7-7-7---7----5-5-5-5-7----3-3-3-3-5---3-3-3-5--2-2-2-2-3----2-2-2-3-2-0
D------------------------------------------------------------------------------------------------------
B------------------------------------------------------------------------------------------------------
A------------------------------------------------------------------------------------------------------
E------------------------------------------------------------------------------------------------------
Evet güzel olmuş....


Bu Yoruma Cevap Ver
ugur2465 | 15 Temmuz 2010 Perşembe 18:23
teşekkürler arkadaşlar hepinizin kulağına sağlık hepsi birbirinden güze


Bu Yoruma Cevap Ver
denizfeneri34 | 09 Temmuz 2010 Cuma 22:30
27 Mart 2010 Cumartesi tarihinde ner10line yazmıştı:
Sondaki 2 biraz kalın kalıyor sanki...Bilmiyorum bende kalın oldu biraz.
bu en doğrusu diyebiliriz eline sağlık


Bu Yoruma Cevap Ver
yıldızcini | 29 Haziran 2010 Salı 21:54
04 Kasım 2009 Çarşamba tarihinde rock_angel* yazmıştı:
berbat,kuskunç,iğrenç,uğraşsam bu kadar kötü olmazdı .
Arkadaşlar tamam böle tabda 5 7 falan da daha etkili ve kolay bi yolu var yakında gönderirim


Bu Yoruma Cevap Ver
Leventgnr | 26 Mayıs 2010 Çarşamba 16:00
------------------7----------------------------------------------------------------------
-7-7-7-7-8-7-7-7-7-7-5-5-5-5-7-5-5-5-5-7-5-3-3-3-3-5-3-3-3-3-5-3-1-1-1-1-3-1-1-1-1-3-1-0-
-----------------------------------------------------------------------------------------
-----------------------------------------------------------------------------------------
-----------------------------------------------------------------------------------------
-----------------------------------------------------------------------------------------


Bu Yoruma Cevap Ver
nabuktnazar | 07 Mayıs 2010 Cuma 14:22
bende böle yaptım hos oldu

E-------------------------7----------------------------------------------------------------------------
G 7-7-7-7- -8---7-7-7---7----5-5-5-5-7----3-3-3-3-5---3-3-3-5--2-2-2-2-3----2-2-2-3-2-0
D------------------------------------------------------------------------------------------------------
B------------------------------------------------------------------------------------------------------
A------------------------------------------------------------------------------------------------------
E------------------------------------------------------------------------------------------------------


Bu Yoruma Cevap Ver
dgfdhdfgh | 02 Nisan 2010 Cuma 22:12
Sondaki 2 biraz kalın kalıyor sanki...Bilmiyorum bende kalın oldu biraz.


Bu Yoruma Cevap Ver
ner10line | 27 Mart 2010 Cumartesi 16:36
e--0000--1---000--5-0---------0---------0-----------------------------------------
B------...................3333....3..333...3....1111..3.1..111..3.1...0000.1.0..000.1.0................
G--------------------------------------------------------------------------------------------...2
D-----------------------------------------------------------------------
A-----------------------------------------------------------------------
E-----------------------------------------------------------------------
nasıl ?????


Bu Yoruma Cevap Ver
sabo97 | 12 Şubat 2010 Cuma 19:02
Güzel olmuş ama çok basit. :)


Bu Yoruma Cevap Ver
ner10line | 31 Aralık 2009 Perşembe 11:11
Başı doğru sonunu biraz değiştirsek daha iyi

e-----------------------5------------------------------------------------------------------------------------------
B--5555--6--5--555---5--3333--5--3--333--5--3--1111--3--1--111--3--1--000--1-0--00--1--0-------
G---------------------------------------------------------------------------------------------------------------2---
D------------------------------------------------------------------------------------------------------------------
A------------------------------------------------------------------------------------------------------------------
E-------------------------------------------------------------------------------------------------------------------


Bu Yoruma Cevap Ver
sweeet | 20 Kasım 2009 Cuma 22:12
berbat,kuskunç,iğrenç,uğraşsam bu kadar kötü olmazdı .


Bu Yoruma Cevap Ver
rock_angel* | 04 Kasım 2009 Çarşamba 12:55
eline sağlık arpejden daha g&uuml;zel bnce :)<br/>


Bu Yoruma Cevap Ver
sheytan_17 | 15 Ağustos 2009 Cumartesi 17:59
teşekkürler...eline sağlık.çok güzel olmuş.


Bu Yoruma Cevap Ver
mvhako | 15 Temmuz 2009 Çarşamba 13:41
30 Haziran 2009 Salı tarihinde gtra yazmıştı:
27 Kasım 2008 Perşembe tarihinde mrt_69-y yazmıştı:
bölede güzel ama üsttekide güzel... bence üsteki daha ii
bu nuda deneyin yamaya çalıştım
.0000..1..000..5............................................................................
.3333...5...3..333..5..3...1111..3..1..111..3..1...0000............................
.2..............................................................................................
................................................................................................
................................................................................................
................................................................................................
................................................................................................
pardonyanlışyazmışım bölesi doğru
ikinci telde 3 1 den sonra 000 1 0 sonrasıda 0000 sonra 3. tel 2 bu kadar


Bu Yoruma Cevap Ver
gtra | 30 Haziran 2009 Salı 15:12
ya güzel olmuş ta en sonunda bi bozuklukı var gibi geldi bana ama diğer yerleri çok güzel ellerine sağlık


Bu Yoruma Cevap Ver
Çocuk Gitarist | 03 Mayıs 2009 Pazar 17:06
ya sondaki g2 var ya onun yeri farklı olmasın iyi hoşta sonda ona vuruyorum dınk beynim böle bi deişik oluyo :)


Bu Yoruma Cevap Ver
cezager | 20 Aralık 2008 Cumartesi 15:43
bölede güzel ama üsttekide güzel... bence üsteki daha ii


Bu Yoruma Cevap Ver
mrt_69-y | 27 Kasım 2008 Perşembe 22:31
e-------------------5---------------------------------------------------
B--5555-6-5-555- 5-3333-5-3-333-5-3-1111-3-1-111-3-1-0000-1-0-000-1--0
G--------------------------------------------------------------------------------------------2
D-----------------------------------------------------------------------
A-----------------------------------------------------------------------
E-----------------------------------------------------------------------


BÖYLE DAHA İYİ SANKİ NE DERSİNİZ ?


Bu Yoruma Cevap Ver
nazlii | 27 Kasım 2008 Perşembe 01:18
Gitar &ccedil;almaya ilk başladığımda bunlarla başlamıştım ya :D Caddelerde r&uuml;zgar, akdeniz akşamları , &Ccedil;aw bella :D:D Ne g&uuml;nlerdi 2 telden giderdik başka bişey bilmezdik:D <br/>


Bu Yoruma Cevap Ver
fiery_shark | 10 Haziran 2008 Salı 11:43
tessekkur ederım ben gıtardan anamam ama bızım gıtarıst olmus onayını verdı ama tek tel olması bıraz sade olmasını saglamıss dendı yane


Bu Yoruma Cevap Ver
bateristt | 01 Şubat 2008 Cuma 12:35
eline sağlık kardeş.gitara yeni başladım. bunla öğreniyom.güzel olmuş


Bu Yoruma Cevap Ver
ERHANDMR | 30 Aralık 2007 Pazar 20:08
değişiğini yazcaktım :)


Bu Yoruma Cevap Ver
kc10 | 07 Aralık 2007 Cuma 17:14
ben gitara başlayalıy 1,5sene falan oldu.bu tablardan hiçbişey anlanmıyorum.biri kısaca anlatabilir mi?


Bu Yoruma Cevap Ver
ifeelgood | 22 Ağustos 2007 Çarşamba 11:05
son g--2 yı bence g--3 yapsakmı:)


Bu Yoruma Cevap Ver
birak_yaw | 17 Ağustos 2007 Cuma 17:48
gusel olmus yaa elıne saglık


Bu Yoruma Cevap Ver
birak_yaw | 17 Ağustos 2007 Cuma 17:42
ya bence kulaaa coq hoş gelıoo elıne kulagına salıkkk


Bu Yoruma Cevap Ver
wenatip | 04 Ağustos 2007 Cumartesi 14:27
teşekkürler çok güzel


Bu Yoruma Cevap Ver
hKn_u.A. | 02 Ağustos 2007 Perşembe 17:39
gayet güzel


Bu Yoruma Cevap Ver
cmksnc | 02 Ağustos 2007 Perşembe 14:02
güsel olms kardes saolasın


Bu Yoruma Cevap Ver
hammyy | 07 Temmuz 2007 Cumartesi 14:15
teşekkürler dilşat.


Bu Yoruma Cevap Ver
experxxx1 | 23 Mayıs 2007 Çarşamba 19:33
güzel olmuış ellerine
sağlık


Bu Yoruma Cevap Ver
fanatik fenerli | 12 Mayıs 2007 Cumartesi 23:22


Siz de Görüş Bildirin

Yorum yazma alanı Akor Merkezi üyelerine özel bir bölümdür. (Giriş Yap / Üye Ol / Şifremi Hatırlat)


PAYLAŞ

Reklam



Anket
zippo_enjoy soruyor:
En çok kullanılan akor ?













Sonuçlar | Sonuçlar & Yorumlar
Yeni Anket | Anketler




Reklam


Radyo Dinle
AkorMerkezi.com © 2014
İletişim - Gizlilik Politikası - Kullanım Koşulları - Kurallar - Son Yorumlar - Rastgele

GitarAkor.com kolonisidir. Derleme 0,09 saniye.