Akor Tab Söz Çeviri Anasayfası
Akor|Tab|Söz|Nota Arşivi
Gitar Akorları | Tab,Söz ve Nota Anasayfası | En Yeni Şarkılar | En Popüler Şarkılar | Akor Cetveli

Bilgiler
 
Seslendiren ve Şarkı: Nino Rota - The Godfather
Biçim: TAB - HİÇBİRİ
Tarih: 24 Ocak 2009 Cumartesi
Gönderen: ASAİ
Toplam Okuyan: 25.314 kişi
Bu Ay Okuyan: 303 kişi
Bu Hafta Okuyan: 1 kişi
 
Beğendiniz mi? The Godfather Tab sayfasını Şimdi paylaşın:

Nino Rota - The Godfather - Tab


Puanlama:
 (13 kişi)

The Godfather şarkısının diğer versiyonlarına bakın >>

Metin boyutu: ( + Büyült ) ( - Küçült)   
The Godfather (Full)
 
  
E----8-11-10-8-11-8-10-8---------
B--8---------------------9-11-8--
G--------------------------------
D--------------------------------
A--------------------------------
E--------------------------------

E----8-11-10-8-11-8-10-8---------
B--8---------------------8-7-6---
G--------------------------------
D--------------------------------
A--------------------------------
E--------------------------------

E------7-10-------7-8------------
B--6-9--------6-9----------------
G--------------------------------
D--------------------------------
A--------------------------------
E--------------------------------

E--------------------------------
B-------11-9-8-11-9-9-8-8--------
G-----8--------------------------
D--10---------------------9-10---
A--------------------------------
E--------------------------------

E--8-8-7-6---10-8----------------
B-----------------9-8------------
G--------------------------------
D--------------------------------
A--------------------------------
E--------------------------------

E----6---------------------------
B--8---8-6---6-9-7-8-------------
G--------------------------------
D--------------------------------
A--------------------------------
E--------------------------------

E----8-11-10-8-11-8-10-8---------
B--8---------------------9-11-8--
G--------------------------------
D--------------------------------
A--------------------------------
E--------------------------------

E----8-11-10-8-11-8-10-8---------
B--8---------------------8-7-6---
G--------------------------------
D--------------------------------
A--------------------------------
E--------------------------------

E------7-10---13-11-10-11-10-8---
B--6-9---------------------------
G--------------------------------
D--------------------------------
A--------------------------------
E--------------------------------

E--------------------------------
B-------11-9-8-11-9-9-8-8--------
G-----8--------------------------
D--10---------------------9-10---
A--------------------------------
E--------------------------------
 

The Godfather Tab, AkorMerkezi.com'da yayınlanmıştır.
http://www.akormerkezi.com


İçerik Kısa Linki:


Beğendiniz mi? The Godfather Tab sayfasını Şimdi paylaşın:


The Godfather Tab için Komoçotoko'dan Gelenler
Aramalar: nota merkezi godfather, nino rota godfather full, the godfather müzik notaları gitar, gothfater akor, gitarla the god father nasil calinir, the godfather akor tab, godfather tab gitar, god father gitar tabları, godfather keman nasıl çalınır, elektro gitar nasıl çalınır
Nino Rota - The Godfather için Kullanıcı Görüşleri

harika olmuş hiç hata yok


Bu Yoruma Cevap Ver
kardelen-a | 14 Ekim 2013 Pazartesi 21:02
sagolasın


Bu Yoruma Cevap Ver
quitariss | 25 Eylül 2012 Salı 17:26
cok iyi olmus :) ama ben guns and roses in solosunu da arıyorum bulamadım eger çıkartırsan bekleriz :D :P


Bu Yoruma Cevap Ver
bek | 08 Şubat 2009 Pazar 12:51
çok iyi olmuş eline saglık hocam


Bu Yoruma Cevap Ver
karaltii | 31 Ocak 2009 Cumartesi 00:34
bunun aynısı sitede var zaten


Bu Yoruma Cevap Ver
sunshine -:- | 30 Ocak 2009 Cuma 22:42
güzel olmuş anıl emeğine sağlık


Bu Yoruma Cevap Ver
ANIL_CORT | 28 Ocak 2009 Çarşamba 12:43
güzel olmusta ses saz gibi cıkıo baska tellerde olsa neyse güzel olmus genede emegine saglık


Bu Yoruma Cevap Ver
Quuen | 27 Ocak 2009 Salı 10:34


Siz de Görüş Bildirin

Yorum yazma alanı Akor Merkezi üyelerine özel bir bölümdür. (Giriş Yap / Üye Ol / Şifremi Hatırlat)


PAYLAŞ

Reklam



Anket
oguzhan özpolat soruyor:
Duman ' ın en iyi şarkısı ?













Sonuçlar | Sonuçlar & Yorumlar
Yeni Anket | Anketler




Reklam


Radyo Dinle
AkorMerkezi.com © 2014
İletişim - Gizlilik Politikası - Kullanım Koşulları - Kurallar - Son Yorumlar - Rastgele

GitarAkor.com kolonisidir. Derleme 0,05 saniye.