Akor Tab Söz Çeviri Anasayfası
Akor|Tab|Söz|Nota Arşivi
Gitar Akorları | Tab,Söz ve Nota Anasayfası | En Yeni Şarkılar | En Popüler Şarkılar | Akor Cetveli

Bilgiler
 
Seslendiren ve Şarkı: Nirvana - The man who sold the world
Biçim: TAB -
Tarih: 14 Temmuz 2002 Pazar
Gönderen: mikhail
Toplam Okuyan: 9.146 kişi
Bu Ay Okuyan: 199 kişi
Bu Hafta Okuyan: 50 kişi
 
Beğendiniz mi? The man who sold the world Tab sayfasını Şimdi paylaşın:

Nirvana - The man who sold the world - Tab


Puanlama:
 (0 kişi)

The man who sold the world şarkısının diğer versiyonlarına bakın >>

Metin boyutu: ( + Büyült ) ( - Küçült)   
"The Man Who Sold The Word-Nirvana"
 =========================

Nirvana (MTV konser albüm)
Tabülatör:
C  - 33555x
?  466544 - Yerini tam bilmiyorum
A  - 00222x
D  - xx023x
F  - 133211

Intro (distortion ile çalın)

E --------------------------
B --------------------------
G --2-2-2-0--2/3\2-0--------
D --------------------------
A --------------------------
E --------------------------

{ Yukardaki intro ve 6 kere çalın)

                    A
We passed upon the stairs,
                  D
Spoken walls and wells,
                  A
Although I was a friend
                F
Sat on walls astrand,
                    C
Which came as so surprised,
                 A                           D
I spoke into his eyes -- I thought you died alone
                    C
A long long time ago

(1.Nakarat

Oh no, not me,
    ?              C
We never lost control,

The face, to face,
         ?
With the man who sold the world.

{  intro 6 kere)

                        A
I laughed and shook his hand,
                  D
Made my way back home,
                         A
I searched from farther land,
                      F
Years and years I roamed,
                      C
I gazed all gazers there,
                     A                         D
We walked a million hills -- I must have died alone,
                    C
A long long time ago.

(2.Nakarat

Who knows, not me,
  ?               C
I never lost control,

Your face, to face,
         ?
With the man who sold the world.

{ intro 6 kere

2.Nakaratı tekrarla

intro 8 kere)

Outro:

E -------------------------------------------------------
B -------------------------------------------------------
G -/9-9-9-9-9-9--\2-2-2-0--2/3\2-0--2-2-2-0--2/3\2-0-----
D -------------------------------------------------------
A -------------------------------------------------------
E -------------------------------------------------------

E -------------------------------------------------------
B -------------------------------------------------------
G -/10-10-10-10-10-10-\9-\7-7-7-7-7-7-/9 \2-2-2-0 2/3\2-0
D -------------------------------------------------------
A -------------------------------------------------------
E -------------------------------------------------------

E -------------------------------------------------------
B -------------------------------------------------------
G -/10-10-10-10-10-10-\9-\7-7-7-7-7-7-/9 \2-2-2-0 2/3\2-0
D -------------------------------------------------------
A -------------------------------------------------------
E -------------------------------------------------------

Nakarat 1:

(C)
--------------------------------
--------------------------------
-------------------2--3--5-----
---------2--3--5---------------
---3--5------------------------

     Oh no
--------------------------------
--------------------------------
--------------------------------
-------------------0--2--3-----
---------0--1--3---------------
---1--3------------------------

    F
   Not me
--------------------------------
--------------------------------
-------------------2--3--5-----
---------2--3--5---------------
---3--5------------------------

     We
--------------------------------
--------------------------------
--------------------------------
-------------------0--2--3-----
---------0--1--3---------------
---1--3------------------------

Db
never lost control
--------------------------------
--------------------------------
--------------------------------
-------------3-----------------
--4------4--------4--4--------
--------------------------------




F
    You're face
--------------------------------
--------------------------------
--------------------------------
-------------------0--2--3-----
---------0--1--3---------------
---1--3------------------------

C
    to face
--------------------------------
--------------------------------
-------------------2--3--5-----
---------2--3--5---------------
---3--5------------------------

? A
    with the man who sold the world
--------------------------------
--------------------------------
--------------------------------
-------------------0--2--3-----
---------0--1--3---------------
---1--3------------------------
The man who sold the world Tab, AkorMerkezi.com'da yayınlanmıştır.
http://www.akormerkezi.com


İçerik Kısa Linki:


Beğendiniz mi? The man who sold the world Tab sayfasını Şimdi paylaşın:


The man who sold the world şarkısı için amatör kayıtları dinleyin: (Siz de Ekleyin)

The man who sold the world Tab için Komoçotoko'dan Gelenler
Aramalar: Nirvana the man who sold the wold tab, nirvana man who sold tab, who sold the world tab, akormerkezi the man who sold the world solo, THE MAN WHO sold,, The man who sold the sold, nirvana the man who sold the world nota, the man who sold the worl tab akor, nirvana the man who sold, nirvana the man who sold the world akor
Nirvana - The man who sold the world için Kullanıcı Görüşleri

pşt arkadaşlar :)

15 yaşlarında eklemişim bu akorları yapmayın :) ingilizceyi okuldan öğrendiğim kadarıyla sitelerde okuyarak buraya kadar getirmişim üstüme gelmişiniz :p

ayrıca gidişatın c# olduğunu söyleyen arkadaş haklı,enstrümanın akorunun yarım ses # yaparsanız orjinal tonlarda devam edersiniz :)

iyi çalışmalar herkese


Bu Yoruma Cevap Ver
mikhail | 02 Mart 2009 Pazartesi 21:21
ayrıca o soru işaretlerinin olduğu akorlarda C# akorudur

e-4
B-6
G-6
D-6
A-4
E-X


Bu Yoruma Cevap Ver
devilxy | 02 Mart 2009 Pazartesi 00:18
pardon akorlarda da sorun var gözüküyo D ler yanlış Dm olucak onlarda deneyince görüceksiniz gerisinde problem yok gibi


Bu Yoruma Cevap Ver
devilxy | 01 Mart 2009 Pazar 23:56
C
to face
e--------------------------------
B--------------------------------
G--------------------------------
D-------------------2--3--5-----
A---------2--3--5---------------
E---3--5------------------------

bu bölümdeki hata dışında sorun yok doğrusu C majör gamının ta kendisi ;

C
to face
e----------------------------------------
B----------------------------------------
G--------------------------2---4---5---
D-------------2---3---5----------------
A-----3---5-----------------------------
E---------------------------------------


Bu Yoruma Cevap Ver
devilxy | 01 Mart 2009 Pazar 23:53
harika...


Bu Yoruma Cevap Ver
xxx_halil_xxx | 26 Şubat 2009 Perşembe 19:01
sözlerde bi gariplik var bence de :)

yine de paylaşım için teşekkürler


Bu Yoruma Cevap Ver
curare | 08 Haziran 2008 Pazar 01:51
arkadalar bu yorumları yapanlar sarkıyı daha once dınlememıişler mi yoksa sarkjını sozlerını ben mı yanlış biliyorum ????


Bu Yoruma Cevap Ver
oz_buyucusu | 24 Nisan 2008 Perşembe 22:35
Harika! Çoq teşekkürler...


Bu Yoruma Cevap Ver
*ezgi* | 26 Ekim 2007 Cuma 18:55
dicek laf yok super olmus eline kulana salik bu ara F ler icin de tesekkur bn bulamadm bn icin harbi ? isareti oldu :)


Bu Yoruma Cevap Ver
serostik | 16 Eylül 2007 Pazar 23:40
eline sağlık hocam


Bu Yoruma Cevap Ver
NoRtH_of_HeAveN | 01 Ağustos 2007 Çarşamba 15:29
güzel omus gercekten ellerıne saglık


Bu Yoruma Cevap Ver
seseses | 19 Ocak 2007 Cuma 12:33
cok cok ellerıne salık bu kadar guzel sarkıyı ancak bu kadar guzel yazabılırdın!!! ? işaretlı yere F gelmesı gerekıo

EMEĞE SAYGI


Bu Yoruma Cevap Ver
berk123 | 03 Ekim 2006 Salı 22:52


Siz de Görüş Bildirin

Yorum yazma alanı Akor Merkezi üyelerine özel bir bölümdür. (Giriş Yap / Üye Ol / Şifremi Hatırlat)


PAYLAŞ

Reklam



Anket
buchos soruyor:
Yamaga Ga15 Amfi mi Yoksa Boston 15 Amfi mi?










Sonuçlar | Sonuçlar & Yorumlar
Yeni Anket | Anketler




Reklam


Radyo Dinle
AkorMerkezi.com © 2014
İletişim - Gizlilik Politikası - Kullanım Koşulları - Kurallar - Son Yorumlar - Rastgele

GitarAkor.com kolonisidir. Derleme 0,05 saniye.