Akor Tab Söz Çeviri Anasayfası
Akor|Tab|Söz|Nota Arşivi
Gitar Akorları | Tab,Söz ve Nota Anasayfası | En Yeni Şarkılar | En Popüler Şarkılar | Akor Cetveli

Bilgiler
 
Seslendiren ve Şarkı: No Doubt - Don't Speak
Biçim: Akor, Gitar Akorları -
Tarih: 07 Haziran 2006 Çarşamba
Gönderen: snob_boy
Toplam Okuyan: 11.596 kişi
Bu Ay Okuyan: 258 kişi
Bu Hafta Okuyan: 55 kişi
 
Beğendiniz mi? Don't Speak Akor sayfasını Şimdi paylaşın:

No Doubt - Don't Speak - Akor


Puanlama:
 (2 kişi)

Don't Speak şarkısının diğer versiyonlarına bakın >>

Metin boyutu: ( + Büyült ) ( - Küçült)   
Intro:
Cm Cm

Cm             
You and me; 
   Gm         Fm
We used to be together; 
Bb          Gm     Fm     Bb
Every day together always.

   Cm    Gm                   
I really feel; 
     Fm       Bb
I'm losing my best friend;
  Gm                  
I can't believe; 
     Cm           Fm    Bb
This could be the end.

    Cm      Gm         Fm         Bb
It looks as though you're letting go; 
    Eb  
And if it's real, 
     Bb(2)           C
Well I don't want to know.

-----------------------------------
Chorus:
Fm(2)          A#m(2)                D#(2)
Don't speak; I know just what you're saying;
C(2)             A#m (2)         C(2)              Fm(2)   C#(2)   C(2)
So please stop explaining; Don't tell me 'cause it hurts.
Fm(2)        A#m(2)              D#(2)
Don't speak; I know what your're thinking;
C(2)              A#m(2)         C(2)              Fm(2)   C#(2)   C(2)
I don't need your reasons; Don't tell me 'cause it hurts.

-----------------------------------
Verse2:(pattern 1)
    Cm
Our memories; 
Gm            Fm
They can be inviting;
         Bb
But some are altogether;
Gm       Fm         Bb
Mighty frightening. 

(strummed)
Cm    Gm       Fm       Bb 
As we die, both you and I;
Eb                   Bb(2)
  With my head in my hands; 
          C
I sit and cry.

------------------------------------
[Chorus(last line)] -> bridge
                    F5    E#5   C5   G#5    
...tell me cause it hurts
C#      G#
It's all ending;
        B      F#              A   Am6* Am6*   G#? G#sus G#sus  G#sus G# 
I gotta stop pretending who we are...

------------------------------------
Solo:
Cm   Gm    Fm   Bb
Cm   Gm    Fm   Bb
Gm   Cm    Fm

------------------------------------
Verse3:(pattern 1)            
Cm         Gm 
You and me;           (strum fast)
Fm           Bb       Fm     Bb
I can see us dying .. are we?

[Chorus]

------------------------------------
Coda:
      C#(2)   C(2)     Fm(2)
Don't tell me cause it hurts
A#m(2)           D#(2)
I know what your saying
C(2)           A#m(2)                 
So please stop explaining
C(2)         Fm(2)        C#(2)         C(2)  Fm(2)
Don't speak, Don't speak, Don't speak,     Oh...
A#m(2)           D#(2)
I know what your thinking
C(2)              A#m(2)               
I don't need your reasons
            D#(2)            F#(2)             C#(2)    C(2)   Fm(2)
I know your good, I now your good, I know your real good.
Am#(2)   D#(2)  C(2)     A#m(2)  D#(2)    Fm(2)    C#(2)   C(2)   Fm(2)....
La La La La,    La La La La      Don't    Don't    whoa!

hush hush Darling....




Don't speak   -   2nd version


    Cm    Gm   Fm   Bb   Eb   C   C#   B   Bmaj7   C#maj7   Fm7   Bbm

  Cm         Gm Fm                  Gm         Fm             Gm        Fm 
 Gm
You and me   we used to be together      every day together   allways
Cm         Gm            Fm                 Gm             Fm              
     Gm          Fm Gm  I really feel     like I'm loseing     my best
friend  I can't believe this could be   the end
Cm                   Gm        Fm        Bb          Eb              Bb    
               C
It looks   as  though   you're letting go   and if its real well I don't
want  to know

(chorus)
Fm                C#                             Eb         C              
     C#      
Don't speak   I know just what you're saying   so please stop explaianing  
         C                      Fm  Bb  C
Don't tell me  'cause it hurts
Fm                C#                        Eb          C                  
   C#
Don't speak   I know what yourn thinking    I dont need your reasons
        C                      Fm   C
Don't tell me cause it hurts

Cm             Gm Fm               Gm                         Fm           
Gm           Fm  Bb     
Our memories   they can be inviting   but some are altogether  mighty
frightning
(strum) Cm     Gm   Fm               Bb  Eb                         Bb     
             C 
           As we die,   both  you and I    with my head in my hands I sit
and cry

-chorus-

(bridge)
C#       C#maj7               B                Bmaj7            Fm7  Bbm 
It's all ending   we  got to stop   pretending   who we are

-solo- (see note)
                                                     (strum)
Cm            Gm  Fm               Gm   Fm   Bb
You and me      I can see us dieing are we?

-chorus-



Note 
I have not yet finished the solo tab but I will soon update

I use the following picking styles for the verses:

------------------------------------------e
--+------+------+------+------+-----------b
--+------+------+------+------+-----------g
------+------+------+------+------+-------d
------------------------------------------a
------------------------------------------E

and strum during chorus


1  2&   &4&





Don't speak    -     3th version



Chords E A D G B e
G#m    x x 5 4 4 4 
F#m    x x 3 2 2 2 
                   The rest of the chords may be played as bar chords...

verse 1
            C#m
            You and me,
                G#m          F#m
            we used to be together,
               B        G#m     F#m     B
            everyday together always,



verse 2
            C#m      G#m
            I really feel,
                F#m             B
            I'm losing my best friend,
              C#m
            I can't believe,
                G#m      F#m     B
            This could be the end,

verse 3
               C#m      G#m    F#m            B
            It looks as though you're letting go,
                E
            and if its real,
                  B               C#
            well I don't want to know...


Chorus 1     F#m
            Don't speak
              D                E
            I know what you're saying,
               C#             D
            so please stop explaining,
                  C#       D        F#m      D C#
            Don't tell me cause it hurts..
Chorus 2
            Don't speak
            I know what you're thinking,
            I don't need your reasons,       (repeat chords as 1st chorus)
            Don't tell me cause it hurts..
verse  4
            Our memories,
            they can be inviting,
            but some are altogether,  (chords same as verse 1) 
            mighty frightening,
verse 5
            As we die both you and I,
            with my head in my hands, (chords same as verse 3)
            I sit and cry..

              CHORUS 1 and 2  (after 2nd chorus end with D C# A F#m)


verse 6      D       A
            Its all ending,
                     C       G             F#m    F#m A B 
            I gotta stop pretending who we are...

            (really COOL guitar break)

verse 7
             C#m        G#m
             You and me,
             F#m           B          F#m(building up...)
             I can see you dying.....are we?

                  CHORUS.......till fade.......the END!





Don't Speak   -    4th  version

Don't use a pick.  

|-----------------|
|-4---4---4---4---|
|-5---5---5---5---|     3 times
|---5---5---5---5-|
|-----------------|
|-----------------|


|-----------------|-----------------|-----------------|
|-3---3---1---1---|-3---3---3---3---|-1---1---3---3---|
|-3---3---1---1---|-3---3---3---3---|-1---1---3---3---|
|---5---5---3---3-|---3---3---5---5-|---3---3---3---3-|
|-----------------|-----------------|-----------------|
|-----------------|-----------------|-----------------|


|-----------------|-----------------|-----------------|-----------------|
|-4---4---3---3---|-1---1---3---3---|-3---3---4---4---|-1---1---3---3---|
|-4---4---3---3---|-1---1---3---3---|-3---3---4---4---|-1---1---3---3---|
|---5---5---5---5-|---3---3---3---3-|---5---5---5---5-|---3---3---3---3-|
|-----------------|-----------------|-----------------|-----------------|
|-----------------|-----------------|-----------------|-----------------|

|-----------------|-----------------|-----------------|-6---------------|
|-4---4---3---3---|-1---1---3---3---|-8---8---6---6---|-8---------------|
|-4---4---3---3---|-1---1---3---3---|-8---8---7---7---|-8---------------|
|---5---5---5---5-|---3---3---3---3-|--10--10---8---8-|-8---------------|
|-----------------|-----------------|-----------------|-6---------------|
|-----------------|-----------------|-----------------|-----------------|


This part I know for sure is not completely right, but it's good enough.
I'm just going to give you the basic chords, you listen to the strumming
and try to figure out the notes in between also

|-8-------------------------8----|
|-9--------6------------6---9----|
|-10---6---8---8----6---8---10---|
|-10---8---8---10---8---8---10---|
|-8----8---6---10---8---6---8----|
|------6-------8----6------------|





Don't speak    -     5th  version


Intro & Verse 1
  _________________
 | Cm            3X| Gm      Fm        Gm7     Gm        Fm      Gm7
E|-----------------|-----------------|-----------------|-----------------|
B|-4---4---4---4---|-3---3---1---1---|-3---3---3---3---|-1---1---3---3---|
G|-5---5---5---5---|-3---3---1---1---|-3---3---3---3---|-1---1---3---3---|
D|---5---5---5---5-|---5---5---3---3-|---3---3---5---5-|---3---3---3---3-|
A|-----------------|-----------------|-----------------|-----------------|
E|-----------------|-----------------|-----------------|-----------------|
   Cm      Gm        Fm      Gm7       Gm      Cm        Fm      Gm7
E|-----------------|-----------------|-----------------|-----------------|
B|-4---4---3---3---|-1---1---3---3---|-3---3---4---4---|-1---1---3---3---|
G|-5---5---3---3---|-1---1---3---3---|-3---3---5---5---|-1---1---3---3---|
D|---5---5---5---5-|---3---3---3---3-|---5---5---5---5-|---3---3---3---3-|
A|-----------------|-----------------|-----------------|-----------------|
E|-----------------|-----------------|-----------------|-----------------|
   Cm      Gm        Fm      Gm7      Cm7(on E)A#(on E)  C
E|-----------------|-----------------|-----------------|-----------------|
B|-4---4---3---3---|-1---1---3---3---|-8---8---6---6---|-5---------------|
G|-5---5---3---3---|-1---1---3---3---|-8---8---7---7---|-5---------------|
D|---5---5---5---5-|---3---3---3---3-|---8---8---8---8-|-5---------------|
A|-----------------|-----------------|-----------------|-3---------------|
E|-----------------|-----------------|-----------------|-----------------|

Chorus: (2X - Starts w/ "Don't speak, I know just what you're
sayin'...")
    Fm             A#m         D#          C              A#m
E|--8--x-8--x-8----6-x-6-x-6---6-x-6-x-6---8--x-8--x-8----6-x-6-x-6--|
B|--9--x-9--x-9----6-x-6-x-6---8-x-8-x-8---8--x-8--x-8----6-x-6-x-6--|
G|--10-x-10-x-10---6-x-6-x-6---8-x-8-x-8---9--x-9--x-9----6-x-6-x-6--|
D|--10-x-10-x-10---8-x-8-x-8---8-x-8-x-8---10-x-10-x-10---8-x-8-x-8--|
A|--8--x-8--x-8----8-x-8-x-8---6-x-6-x-6---10-x-10-x-10---8-x-8-x-8--|
E|-----------------6-x-6-x-6---------------8--x-8--x-8----6-x-6-x-6--|
    D#          Fm        C#   C
E|--6-x-6-x-6---8------------------|
B|--8-x-8-x-8---9---------9----8---|
G|--8-x-8-x-8---10--------10---9---|
D|--8-x-8-x-8---10--------11---10--|
A|--6-x-6-x-6---8---------11---10--|
E|------------------------9----8---|

*Verse 2

Pre-Chorus: (Starts w/ "As we die, both you and I...")
    C     G     F     A#    D#    A#    C
E|--------------------------------------3--|
B|--5-5---------------------7-7---------5--|
G|--5-5---4-4---2-2---4-4---7-7---4-4---5--|
D|--5-5---5-5---3-3---5-5---7-7---5-5---5--|
A|--3-3---5-5---3-3---5-5---6-6---5-5---3--|
E|--------3-3---1-1---6-6---------6-6------|

*Chorus

Bridge: (Starts w/ "It's all ending, we gotta stop pretending...")
    G5    C5    F5    A#5  G#5 C#5 D#5  C#5/D#5      D#
E|---------------------------------------------------6--|
B|---------------------------------------------------8--|
G|--------5-5---------3-3-------6---8-----6/8--8--8--8--|
D|--5-5---5-5---3-3---3-3---6---6---8-----6/8--8--8--8--|
A|--5-5---3-3---3-3---1-1---6---4---6-----4/6--6--6--6--|
E|--3-3---------1-1---------4---------------------------|

Solo: (All notes are picked unless shown otherwise)
/=slide up   h=hammer-on   p=pull-off   ^=bend   (x)=quiet
E|-----------1-3-1--------------------1-3-1--3--------1-3-1--------------|
B|--4---1--4--------3---------(1)-1/4-------------1-4--------3-----------|
G|---------------------3-0-1------------------------------------3-0--1---|
D|-----------------------------------------------------------------------|
A|-----------------------------------------------------------------------|
E|-----------------------------------------------------------------------|

E|-------------------------8---8-10-11-10-8----8-------------------------|
B|--8-9-8h9-11--9p8--------8----------------11---8-11----8------8-9-11---|
G|------------------10^----8--------------------------10---8-10----------|
D|-----------------------------------------------------------------------|
A|-----------------------------------------------------------------------|
E|-----------------------------------------------------------------------|

E|-----------------------------------------------------------------------|
B|--9h11p9-8-(11)--------------------------------------------------------|
G|---------------------------------------3-5-3---------------------------|
D|--------------------------3-5----3-5-6-------6-5h6p5-(3)---------------|
A|--------------------3/5-6-----6----------------------------------------|
E|-----------------------------------------------------------------------|




akorlar:

Cm:    x35543     Fm(2): x8aa98   (a=fret 10)    F5:   x8aaxx 
Gm:    355333     A#m(2):688666                  E#5:  x588xx
Fm:    133111     D#(2)  668886                  C5:   8aaxxx
Bb:    x13331     C(2):  8aa988                  G#5:  466xxx
Eb:    x68886     C#(2): 9bba99   (b=fret 11)    C#:   x46664
Bb(2): 688788                                    G#:   466544
C:     x35553                                    B:    x24442
                                                 F#:   244322 
                                                 A:    577655
                                                 Am6*: 577855
                                                 G#sus:446644


Don't Speak Akor, AkorMerkezi.com'da yayınlanmıştır.
http://www.akormerkezi.com


İçerik Kısa Linki:


Beğendiniz mi? Don't Speak Akor sayfasını Şimdi paylaşın:


No Doubt - Don't Speak KULLANILAN AKORLAR (Beta)
Cmx 3 5 5 4 3x x 5 5 4 3
Gm3 5 5 3 3 3x x 0 3 3 3
Fmx 3 3 1 1 1x x 3 1 1 1
Bb1 1 3 3 3 1x 1 3 3 3 1x x 0 3 3 1
Ebx 1 1 3 4 3x x 1 3 4 3x x 5 3 4 3
A#m1 1 3 3 2 1
F51 3 3 x x 1x 8 10 x x 1
E#5x 3 2 1 1 0
C5x 3 5 5 x 3
G#54 6 6 x x 43 2 1 0 0 33 x 1 0 0 3
C#4 4 6 6 6 4x 4 3 1 2 1x 4 6 6 6 4
F#2 4 4 3 2 2x 4 4 3 2 2x x 4 3 2 2
G#susx x 6 6 4 4
C#maj7x 3 3 1 2 1x 4 6 5 6 4
Fm7x 8 10 8 9 8x x 1 1 1 1
Bbm1 1 3 3 2 1
Dx 5 4 2 3 2x 9 7 7 x 22 0 0 2 3 2
E0 2 2 1 0 0x 7 6 4 5 0
G#mx x 6 4 4 4
F#m2 4 4 2 2 2x 4 4 2 2 2x x 4 2 2 2
A0 0 2 2 2 00 4 x 2 5 05 7 7 6 5 5
Gm73 5 3 3 3 3x x 3 3 3 3
D#x 1 1 3 4 3x x 1 3 4 3x x 5 3 4 3
G53 5 5 x x 33 x 0 0 3 3
A#5x 0 3 2 2 1x 0 x 2 2 16 8 8 x x 6
C#5x 3 2 1 1 0x 4 6 6 x 4
D#5x x 0 3 3 2x 6 8 8 x 6
Şarkıda kullanılan akorların farklı şekillerde basılışlarıdır. (Detaylı bilgi)

Don't Speak Akor için Komoçotoko'dan Gelenler
Aramalar: dont speak chords, no doubt dont speak akor, dont speakakor, don't speak akorları, no doubt don't speak tab, no doubt - don't speak tab, don t speak akor, font speaknakor, dont speak guitar akor, Akor lagu no doubt don't speak
No Doubt - Don't Speak için Kullanıcı Görüşleri

gayet iyi kopyala yapistirma ne fark eder önemli olan erisilebilirlik


Bu Yoruma Cevap Ver
NasilYani | 26 Mart 2014 Çarşamba 18:08
tebrik ederim güzel olmuş


Bu Yoruma Cevap Ver
denizgizem | 24 Ekim 2009 Cumartesi 17:24
herşeyi yerlerine koysanız daha ii olurdu amatörler için gayet ii ama tebrikler kim çıkarmışşsa yada kopyalamışsa :D


Bu Yoruma Cevap Ver
heygenc | 01 Kasım 2008 Cumartesi 20:04
şarkı mükemmel,çok sağol


Bu Yoruma Cevap Ver
pırlanta | 28 Eylül 2008 Pazar 21:59
gerçekten çok güzel yapmışsın ellerine sağlık zaten şarkı mükemmel


Bu Yoruma Cevap Ver
qürçan | 21 Temmuz 2007 Cumartesi 13:41
kankalar pardon ya dalmışım eb ile d# aynı zaten :D


Bu Yoruma Cevap Ver
cemmooo | 08 Haziran 2007 Cuma 21:10
Nakarat bölümünde D# yerine Eb pls.. :D


Bu Yoruma Cevap Ver
cemmooo | 06 Haziran 2007 Çarşamba 22:15
Bunu yazan adamın elini öpmek isterim !


Bu Yoruma Cevap Ver
api_alper | 31 Mayıs 2007 Perşembe 16:23
vayy canınaa.....


Bu Yoruma Cevap Ver
kuk. | 29 Mayıs 2007 Salı 23:28
ya bnu bu kdr uzn diilde da basitini yazablrmsnz yaa bisi anasılmıo


Bu Yoruma Cevap Ver
conrad666 | 03 Şubat 2007 Cumartesi 15:39
bu şarkı çok güzel akorları bizle paylaşan arkadaşa teşekkürler


Bu Yoruma Cevap Ver
holdencaulfield | 20 Ocak 2007 Cumartesi 16:16
ciddn coşmuşsun kopuk olmuş bu kadrını beklemiodum


Bu Yoruma Cevap Ver
-jackass- | 25 Ağustos 2006 Cuma 22:12
Teşekkürler bilader.Amme hizmeti yapiyor adam daha ne olsun.Eiwallah kardeş.Çalışmalarının devamını dilerim ben kendi adıma bizzat şahsen.euehuehue


Bu Yoruma Cevap Ver
aalemli | 18 Temmuz 2006 Salı 14:56
walla madem hazırı varmış ben neden kastım ki öle.Ki ben açıkçası bazı hatalar buldum.Zaten çalışmayı asıl yapan kimse yazmış bazı yerlerde emin değilim diye.Ben bir ay önce bu şarkı üzerinde çalışıp buraya da ekledim.Yerli malı varken neden yabancıya yer verildi ki :D neyse şaka yapıyorum tabi.Yine de emeğine sağlık.


Bu Yoruma Cevap Ver
eessau | 20 Haziran 2006 Salı 23:48
yok bertuğ ben çıkarmadım. baktım akorlar doğru koyayım siteye dedim. keşke ilk satırdan sonrasını yazmasaydın be. havamız olurdu biraz


Bu Yoruma Cevap Ver
snob_boy | 16 Haziran 2006 Cuma 03:21
qüzel... hatta orjinal akorlar we solo... mütiş...
ama ben sanki bunu bi sitede qörmüştüm :D (**aynisini**)
bunu sen mi çıkardn birol?


Bu Yoruma Cevap Ver
buzy | 15 Haziran 2006 Perşembe 22:56
güzellll:):):)


Bu Yoruma Cevap Ver
dark rocker | 15 Haziran 2006 Perşembe 22:22


Siz de Görüş Bildirin

Yorum yazma alanı Akor Merkezi üyelerine özel bir bölümdür. (Giriş Yap / Üye Ol / Şifremi Hatırlat)


PAYLAŞ

Reklam



Anket
sheva7_c soruyor:
Sizce Türkiye'nin Gelmiş Geçmiş En İyi Anadolu Rockçısı Kim?










Sonuçlar | Sonuçlar & Yorumlar
Yeni Anket | Anketler




Reklam


Radyo Dinle
AkorMerkezi.com © 2014
İletişim - Gizlilik Politikası - Kullanım Koşulları - Kurallar - Son Yorumlar - Rastgele

GitarAkor.com kolonisidir. Derleme 0,05 saniye.