Akor Tab Söz Çeviri Anasayfası
Akor|Tab|Söz|Nota Arşivi
Gitar Akorları | Tab,Söz ve Nota Anasayfası | En Yeni Şarkılar | En Popüler Şarkılar | Akor Cetveli

Bilgiler
 
Seslendiren ve Şarkı: Ogün Sanlısoy - Dikenli Menzil
Biçim: Akor, Gitar Akorları - INTRO
Tarih: 17 Şubat 2011 Perşembe
Gönderen: azinlik
Toplam Okuyan: 14.140 kişi
Bu Ay Okuyan: 249 kişi
Bu Hafta Okuyan: 56 kişi
 
Beğendiniz mi? Dikenli Menzil Akor sayfasını Şimdi paylaşın:

Ogün Sanlısoy - Dikenli Menzil - Akor

  (versiyon 2)
Puanlama:
 (23 kişi)

Dikenli Menzil şarkısının diğer versiyonlarına bakın >>

Metin boyutu: ( + Büyült ) ( - Küçült)   

OGÜN SANLISOY
DİKENLİ MENZİL

INTRO:

  Am
E-------------------------------------------------------------0----
B-------1-----1-----3-----1-----0h1---1-----1-----3-----1----------
G---------2-----2-----2-----2-----------2-----2-----2-----2--------
D-----------2-----2-----2-----2-----------2-----2-----2-----2------
A-----0-----------------------------0------------------------------
E-2-3--------------------------------------------------------------


  Dm                          Am
E---1-----1-----3-----1-----0--------------------------------------
B-----3-----3-----3-----3-------1-----1-----3-----1-----0----------
G-------2-----2-----2-----2-------2-----2-----2-----2--------------
D-0---------------------------------2-----2-----2-----2------------
A-----------------------------0------------------------------------
E------------------------------------------------------------------


  G                           Am
E------------------------------------------------------------------
B---0-----0-----1-----1-----0---0-----0-----0----------------------
G-----0-----0-----0-----0---------2-----2--------------------------
D-------0-----0-----0-----0---------2-----2------------------------
A-----------------------------0------------------------------------
E-3----------------------------------------------------------------





G                Am
Düşünmek fayda etmez
G                Am
Üzülsem de farketmez
Dm               Am
Gidenler geri dönmez
               G
Herkes gider zaten 
              Am
Kalırım kendimle


G               Am
Ağlasam acım dinmez 
G                Am
Gülsem içim sevinmez
Dm              Am
Yaşanmadan bilinmez 
               G                    
Geçmek gerek bazen 
              Am
Dikenli menzilden

 

Dm               Am
Yollar var önümde sonları görünmez 
G                Am     (Bm-C-Dm)
Yanımda olmazsan gidemem
Dm            Am
Sorular önümde yanıtlar dilimde 
G                Am
Yanımda olmazsan diyemem



Ve ben simsiyah geceyken,
Ve sen aydın tutan mum yüreğimi,           INTRO...
Ve ben parlayan ışıkken,
Sen kapattın gözlerini...




G               Am
Ağlasam acım dinmez 
G                Am
Gülsem içim sevinmez
Dm              Am
Yaşanmadan bilinmez 
               G                    
Geçmek gerek bazen 
              Am
Dikenli menzilden



Dm               Am
Yollar var önümde sonları görünmez 
G                Am     (Bm-C-Dm)
Yanımda olmazsan gidemem
Dm            Am
Sorular önümde yanıtlar dilimde 
G                Am
Yanımda olmazsan diyemem


SOLO... Dm-Am-G-Am


 "G" LERİ BARELİ ŞEKİLDE BASIN.

                 
                   "MADE BY OUZ"


Dikenli Menzil Akor, AkorMerkezi.com'da yayınlanmıştır.
http://www.akormerkezi.com


İçerik Kısa Linki:


Beğendiniz mi? Dikenli Menzil Akor sayfasını Şimdi paylaşın:


Ogün Sanlısoy - Dikenli Menzil KULLANILAN AKORLAR (Beta)
Amx 0 2 2 1 0x 0 7 5 5 5x 3 2 2 1 0
Dmx 0 0 2 3 1
Gx 10 12 12 12 103 2 0 0 0 33 2 0 0 3 3
Şarkıda kullanılan akorların farklı şekillerde basılışlarıdır. (Detaylı bilgi)

Dikenli Menzil şarkısı için amatör kayıtları dinleyin: (Siz de Ekleyin)

Dikenli Menzil Akor için Komoçotoko'dan Gelenler
Aramalar: dikenli menzik akor, düşünmek fayda etmez akor, ogün sanlısoy dikenli, dikenli menzil nota, dikenli akor, ogün şanlısoy dikenli menzil akor, ogun sanlısyo dıkenlı menzıl akor, ogün şanlısoy gitar akor ve vuruşları, ogün sanlısoy, ogün sanlısoy akor
Ogün Sanlısoy - Dikenli Menzil için Kullanıcı Görüşleri

Dm C
Yaşanmadan bilinmez
G
Geçmek gerek bazen
Am
Dikenli menzilden ...
Olucak ...


Bu Yoruma Cevap Ver
kanarenba | 27 Ocak 2012 Cuma 16:09
G Asus2
Düşünmek fayda etmez
G Am
Üzülsem de farketmez
Dm Asus2
Gidenler geri dönmez
G
Herkes gider zaten
İlk Am leri Asus2 basarsanız tam doğru sesi alırsınız.


Bu Yoruma Cevap Ver
kanarenba | 27 Ocak 2012 Cuma 16:06
beyler arpefini bilenler varmı ?


Bu Yoruma Cevap Ver
dikenli menzil | 06 Mayıs 2011 Cuma 18:55
22 Şubat 2011 Salı tarihinde oguzhan07 yazmıştı:
Solosunu Çıkaran Var mı?
solosunu cıkardım bugün bide 2.gitarı falanda ekledim biraz daha düzenleyip verdim bugün bi kaç güne yayınlanır sanırım


Bu Yoruma Cevap Ver
azinlik | 21 Mart 2011 Pazartesi 19:16
Dm lerden sonra gelen Am lerin yerine C olucak gözümden kaçmış.
şiir kısmındada aydın tutan cıkmıs aydınlatan olucak:)


Bu Yoruma Cevap Ver
azinlik | 23 Şubat 2011 Çarşamba 21:24
güzel olmuş emeğe saygı. ben üşenmiştim :)


Bu Yoruma Cevap Ver
chemicalheaven | 22 Şubat 2011 Salı 17:07
Solosunu Çıkaran Var mı?


Bu Yoruma Cevap Ver
oguzhan07 | 22 Şubat 2011 Salı 13:04


OGÜN SANLISOY
DİKENLİ MENZİL

INTRO:

Am
E-------------------------------------------------------------0----
B-------1-----1-----3-----1-----0h1---1-----1-----3-----1----------
G---------2-----2-----2-----2-----------2-----2-----2-----2--------
D-----------2-----2-----2-----2-----------2-----2-----2-----2------
A-----0-----------------------------0------------------------------
E-2-3--------------------------------------------------------------


Dm Am
E---1-----1-----3-----1-----0--------------------------------------
B-----3-----3-----3-----3-------1-----1-----3-----1-----0----------
G-------2-----2-----2-----2-------2-----2-----2-----2--------------
D-0---------------------------------2-----2-----2-----2------------
A-----------------------------0------------------------------------
E------------------------------------------------------------------


G Am
E------------------------------------------------------------------
B---0-----0-----1-----1-----0---0-----0-----0----------------------
G-----0-----0-----0-----0---------2-----2--------------------------
D-------0-----0-----0-----0---------2-----2------------------------
A-----------------------------0------------------------------------
E-3----------------------------------------------------------------





G Am
Düşünmek fayda etmez
G Am
Üzülsem de farketmez
Dm Am
Gidenler geri dönmez
G
Herkes gider zaten
Am
Kalırım kendimle


G Am
Ağlasam acım dinmez
G Am
Gülsem içim sevinmez
Dm C
Yaşanmadan bilinmez
G
Geçmek gerek bazen
Am
Dikenli menzilden



Dm C
Yollar var önümde sonları görünmez
G Am (Bm-C-Dm)
Yanımda olmazsan gidemem
Dm C
Sorular önümde yanıtlar dilimde
G Am
Yanımda olmazsan diyemem



Ve ben simsiyah geceyken,
Ve sen aydın tutan mum yüreğimi, INTRO...
Ve ben parlayan ışıkken,
Sen kapattın gözlerini...




G Am
Ağlasam acım dinmez
G Am
Gülsem içim sevinmez
Dm C
Yaşanmadan bilinmez
G
Geçmek gerek bazen
Am
Dikenli menzilden



Dm C
Yollar var önümde sonları görünmez
G Am (Bm-C-Dm)
Yanımda olmazsan gidemem
Dm C
Sorular önümde yanıtlar dilimde
G Am
Yanımda olmazsan diyemem



Böyle Olursa Daha İYi OLur Arkadaşlar :)


Bu Yoruma Cevap Ver
johhny bravo | 20 Şubat 2011 Pazar 16:28
çok begendim arkadaşım intro tam uymuş akorlarıda güzel seçmişsin eline sağlık :)


Bu Yoruma Cevap Ver
marbls | 19 Şubat 2011 Cumartesi 13:17


Siz de Görüş Bildirin

Yorum yazma alanı Akor Merkezi üyelerine özel bir bölümdür. (Giriş Yap / Üye Ol / Şifremi Hatırlat)


PAYLAŞ

Reklam



Anket
sözyokh soruyor:
Site Hakkında Ne Düşünürsün













Sonuçlar | Sonuçlar & Yorumlar
Yeni Anket | Anketler




Reklam


Radyo Dinle
AkorMerkezi.com © 2014
İletişim - Gizlilik Politikası - Kullanım Koşulları - Kurallar - Son Yorumlar - Rastgele

GitarAkor.com kolonisidir. Derleme 0,06 saniye.