Akor Tab Söz Çeviri Anasayfası
Akor|Tab|Söz|Nota Arşivi
Gitar Akorları | Tab,Söz ve Nota Anasayfası | En Yeni Şarkılar | En Popüler Şarkılar | Akor Cetveli

Bilgiler
 
Seslendiren ve Şarkı: Ogün Sanlısoy - Saydım
Biçim: TAB - SOLO
Tarih: 11 Haziran 2009 Perşembe
Gönderen: kRise
Toplam Okuyan: 44.396 kişi
Bu Ay Okuyan: 665 kişi
Bu Hafta Okuyan: 30 kişi
 
Beğendiniz mi? Saydım Tab sayfasını Şimdi paylaşın:
DİKKAT!
Saydım Tab sayfasını düzgün görüntüleyemiyor olabilirsiniz.
Eğer böyle bir sıkıntınız varsa tıklayın.

Ogün Sanlısoy - Saydım - Tab


Puanlama:
 (20 kişi)

Saydım şarkısının diğer versiyonlarına bakın >>

Metin boyutu: ( + Büyült ) ( - Küçült)   
E--------------------------------9-9-7-------------------
B--7v---7-9-10-9---7---------7---------10-9v--7-7--6-6---
G--------------------9---6-9---------------------------6-
D--------------------------------------------------------
A--------------------------------------------------------
E--------------------------------------------------------


E-----------------9-7----7-----------------
B---------------------10---10-9p--7v--9p---
G--6-7-6---6-7-6---------------------------
D------------------------------------------
A------------------------------------------
E------------------------------------------


E-------------------7--9-9-9-7v-----------------------------7--9-9-9-7v---
B--7v--9p---7v--9p----------------7v--9p---7v--9p---7v--9p----------------
G-------------------------------------------------------------------------
D-------------------------------------------------------------------------
A-------------------------------------------------------------------------
E-------------------------------------------------------------------------


NOT:Elimden geldiği kadar yapmaya çalıştım ve sizlerle paylaşmak istedim.Hatalı gördüğünüz yerleri düzeltirsen
iz herkez faydalanacaktır.
v: teli titretme olarak kullandım.Başka bir terimde kullanılıyo olabilir,bilmediğim için öyle yazdım.
p: teli gerdirme.
Saygılar.
Saydım Tab, AkorMerkezi.com'da yayınlanmıştır.
http://www.akormerkezi.com


İçerik Kısa Linki:


Beğendiniz mi? Saydım Tab sayfasını Şimdi paylaşın:



Saydım Tab için Komoçotoko'dan Gelenler
Aramalar: s aydim tab, ogün şanlısoy saydım solo notaları, ogun sa nlısay saydım tab, ogün şanlısay saydım tabları, Ogün şansısoy saydım tab, ogün sanlısoy saydım, saydım akor tab, tab okunuşlarıyla gitar şarkıları, o gün şanlısoy karadeniz sanatçısı, o gün sanlısoy saydım gitar akorlari
Ogün Sanlısoy - Saydım için Kullanıcı Görüşleri

ellerine sağlık :)


Bu Yoruma Cevap Ver
erdemcabuk | 29 Haziran 2011 Çarşamba 13:10
Ara solo hangisi bide onu bilsek :D


Bu Yoruma Cevap Ver
ALpoNZoo96 | 02 Haziran 2011 Perşembe 21:09
20 Ocak 2011 Perşembe tarihinde unutulmaz yazmıştı:
Yha arkadaşlar bana okunuşlarıyla yazar mısınız? ben yeniyim de bunlardan anlamıyorum
yeni başlamışsan tab dan başlama bence


Bu Yoruma Cevap Ver
rockstar _99 | 07 Mayıs 2011 Cumartesi 14:48
Yha arkadaşlar bana okunuşlarıyla yazar mısınız? ben yeniyim de bunlardan anlamıyorum


Bu Yoruma Cevap Ver
unutulmaz | 20 Ocak 2011 Perşembe 18:16
11 Haziran 2009 Perşembe tarihinde kRise yazmıştı:
Arkadaşlar bu ara solo başlığa yazmıştım ara solo diye ama sitede sadece saydım olarak çıkmış anlayamadım(!)..
yanlış yazmışsındır :D


Bu Yoruma Cevap Ver
**rock_qirL** | 11 Eylül 2010 Cumartesi 22:34
mmm


Bu Yoruma Cevap Ver
gerzenbeli | 02 Mayıs 2010 Pazar 13:10
gayet iyi olmuş bu arada p değil o b olacak p pull over dır


Bu Yoruma Cevap Ver
TheKosto | 07 Ekim 2009 Çarşamba 20:43
http://www.youtube.com/watch?v=AA1tE16Ufn0 doğrusu bu arkdşlar dinleyin ve çıkartın kolay gelsin


Bu Yoruma Cevap Ver
rederfi | 27 Eylül 2009 Pazar 11:56
Arkadaşlar bu ara solo başlığa yazmıştım ara solo diye ama sitede sadece saydım olarak çıkmış anlayamadım(!)..


Bu Yoruma Cevap Ver
kRise | 11 Haziran 2009 Perşembe 19:58


Siz de Görüş Bildirin

Yorum yazma alanı Akor Merkezi üyelerine özel bir bölümdür. (Giriş Yap / Üye Ol / Şifremi Hatırlat)


PAYLAŞ

Reklam



Anket
S60V3 soruyor:
Valencia Cg 160 Nasıldır ? (Klasik)









Sonuçlar | Sonuçlar & Yorumlar
Yeni Anket | Anketler




Reklam


Radyo Dinle
AkorMerkezi.com © 2014
İletişim - Gizlilik Politikası - Kullanım Koşulları - Kurallar - Son Yorumlar - Rastgele

GitarAkor.com kolonisidir. Derleme 0,06 saniye.