Akor Tab Söz Çeviri Anasayfası
Akor|Tab|Söz|Nota Arşivi
Gitar Akorları | Tab,Söz ve Nota Anasayfası | En Yeni Şarkılar | En Popüler Şarkılar | Akor Cetveli

Bilgiler
 
Seslendiren ve Şarkı: Oğuzhan Koç - Gül Ki Sevgilim
Biçim: TAB - SOLO
Tarih: 21 Aralık 2008 Pazar
Gönderen: silenthillpsp
Toplam Okuyan: 33.590 kişi
Bu Ay Okuyan: 372 kişi
Bu Hafta Okuyan: 31 kişi
 
Beğendiniz mi? Gül Ki Sevgilim Tab sayfasını Şimdi paylaşın:

Oğuzhan Koç - Gül Ki Sevgilim - Tab


Puanlama:
 (35 kişi)

Gül Ki Sevgilim şarkısının diğer versiyonlarına bakın >>

Metin boyutu: ( + Büyült ) ( - Küçült)   
Gül ki Sevgilim Solo


E|---------------------------------------------|
B|---------------------------------------------|
G|--------------7-------------9--9--9-11-9-----|
D|----7--9--11-------11--9---------------------|
A|---------------------------------------------|
E|---------------------------------------------|

E|----------------------9-10-9---------------------------|
B|----7-9--10----9--7-----------12--10--9----------------|
G|-7---------------------------------------11--9----9s11-|
D|-------------------------------------------------------|
A|-------------------------------------------------------|
E|-------------------------------------------------------|


E|----------------------------------------------|
B|----------------------------------------------|
G|--9h11-9h11-9h11-9h11-9h11-9h11-9h11-9h11-9h11|
D|----------------------------------------------|
A|----------------------------------------------|
E|----------------------------------------------|


E|------------------------------------------------------|
B|------------------------------------------------------|
G|----9-------------------------------------------------|
D|-------12-12----9-11-12-11---9-------9----------------|
A|---------------------------------12-----12------------|
E|------------------------------------------------------|

X3
E|--------------------------------------|
B|--10---9------------------------------|
G|-----------11---9---------------------|
D|--------------------12---11---9-------|
A|0----0---0----0---0----0----0---0--12-|
E|--------------------------------------|

h:hammer on
s:slide


By Eralp Sendan




Gül Ki Sevgilim Tab, AkorMerkezi.com'da yayınlanmıştır.
http://www.akormerkezi.com


İçerik Kısa Linki:


Beğendiniz mi? Gül Ki Sevgilim Tab sayfasını Şimdi paylaşın:


Gül Ki Sevgilim şarkısı için amatör kayıtları dinleyin: (Siz de Ekleyin)

Gül Ki Sevgilim Tab için Komoçotoko'dan Gelenler
Aramalar: gulki sevgilim sarkısının tabı, gül ki sevgilim gitar tap, oguzhan Koc - Gul ki Sevgilim, oğuzhan koç bu sabah gitar tab, ouzhan ko ve sevgilisi, gül ki sevgilim tabl, 3+1 oğuzhan koç 90 lar şarkısı, gülki sevgilim oguzhan koç solo, oguzhan koç bu sabah, gülki sevgilim.solo
Oğuzhan Koç - Gül Ki Sevgilim için Kullanıcı Görüşleri

08 Nisan 2011 Cuma tarihinde SNIPER559 yazmıştı:
E--7-5-7----5-7-8--10-8-7-5--------
B----------------------------------

Bu sabah yerini kimler almış

E--3-2-3-5---2-2-0-----------------
B-------------------3--------------

Diye düşündüm kalktığımda

E--0-2-3-2-3---2-2-0------0-2------
B---------------------3------------

Hiçbiri seni hiçbiri beni

E--0-0--------0---2-2-0------------
B------3-1-3------------3----------

hiçbiri bizi anlamamış.

E--7-5-7----5-7-8--10-8-7-5--------
B----------------------------------

Bu sabah telefonu hiç açmadım

E--3-2-3-5---2-2-0-----------------
B-------------------3--------------

Çaldı durdu aldırmadım

E--0-2-3-2-3---2-2-0------0-2------
B---------------------3------------

Hiçbirşey seni seni düşünmemi

E--0-0--------0---2-2-0------3-2-3-
B------3-1-3------------3----------

Engellemez ben anladım.Bu sabahh

------------------------------------------------------------------------------------

Nakarat

E--7-5-3-5-7----5-3-2-3-5----------
B----------------------------------

Gül ki sevgilim Gül ki gözlerin

E--3-2-0-2-3-2-2-0-----------------
B-------------------3--------------

Solmasın sakın aşk çiçeğim

E--3-2-0-2-3---2-0---0-2----------
B------------------3--------------

Gel biraz bana Gel biraz daha

E--0--------0----2-0-------------
B----3-1-3------------3-3--------

Arşa çıksın nağmelerim

---------------------------------------------------------------------------------
DOĞRUSU BUDUR....
arkadaşım solo demiş yani ara solodan bahsetmiş doğrusu budur diye kendi çapında küstahlık yapmanın ne alemi var


Bu Yoruma Cevap Ver
qukay | 29 Kasım 2011 Salı 22:50
E--7-5-7----5-7-8--10-8-7-5--------
B----------------------------------

Bu sabah yerini kimler almış

E--3-2-3-5---2-2-0-----------------
B-------------------3--------------

Diye düşündüm kalktığımda

E--0-2-3-2-3---2-2-0------0-2------
B---------------------3------------

Hiçbiri seni hiçbiri beni

E--0-0--------0---2-2-0------------
B------3-1-3------------3----------

hiçbiri bizi anlamamış.

E--7-5-7----5-7-8--10-8-7-5--------
B----------------------------------

Bu sabah telefonu hiç açmadım

E--3-2-3-5---2-2-0-----------------
B-------------------3--------------

Çaldı durdu aldırmadım

E--0-2-3-2-3---2-2-0------0-2------
B---------------------3------------

Hiçbirşey seni seni düşünmemi

E--0-0--------0---2-2-0------3-2-3-
B------3-1-3------------3----------

Engellemez ben anladım.Bu sabahh

------------------------------------------------------------------------------------

Nakarat

E--7-5-3-5-7----5-3-2-3-5----------
B----------------------------------

Gül ki sevgilim Gül ki gözlerin

E--3-2-0-2-3-2-2-0-----------------
B-------------------3--------------

Solmasın sakın aşk çiçeğim

E--3-2-0-2-3---2-0---0-2----------
B------------------3--------------

Gel biraz bana Gel biraz daha

E--0--------0----2-0-------------
B----3-1-3------------3-3--------

Arşa çıksın nağmelerim

---------------------------------------------------------------------------------
DOĞRUSU BUDUR....


Bu Yoruma Cevap Ver
SNIPER559 | 08 Nisan 2011 Cuma 10:50
e 2 0 0 2 0 0
b 3 3 2 3 3 2 0 2 3 2 0 3 2 0 2 3 2 0 0 2 0 0 2 0
g 2 2 2 0 2 0 2


Bu Yoruma Cevap Ver
sitkom | 24 Mart 2011 Perşembe 15:33
27 Eylül 2009 Pazar tarihinde rock_angel* yazmıştı:
14 Haziran 2009 Pazar tarihinde süper star yazmıştı:
arkadaşlar bakın şimdi dogru tabı vericemmm
e--0............0........................
b......3..1..3..../..3...1...0...1...3/1...0.......0..1....0..0........../1...0......0...1/..0............0
g....................................................2...................2...0../........2........./.....2..0..2/
devamı ;
g...2...0......0...2
d............3........

e....................0.........0
b..0...0..................3
g...........2...0 yorum yazın lütfenn
yorum mu yazıyım bence okadar güzel olmamış uyduruk olmuş ama genede emeğe saygı
başı iyi sonu kötü


Bu Yoruma Cevap Ver
gutarxxl | 16 Temmuz 2010 Cuma 15:13
03 Ekim 2009 Cumartesi tarihinde bekocomtr yazmıştı:
ben pek ritmini bulamadım yapamdım biliorum şarkıyı ama çıkartamadım
başları güzel ama sonları biraz bozuk


Bu Yoruma Cevap Ver
gutarxxl | 16 Temmuz 2010 Cuma 15:07
pek anlamadım şu numaralar ne anlama geliyo daha gitara başlamadım da.


Bu Yoruma Cevap Ver
frknts | 06 Aralık 2009 Pazar 11:43
ben pek ritmini bulamadım yapamdım biliorum şarkıyı ama çıkartamadım


Bu Yoruma Cevap Ver
bekocomtr | 03 Ekim 2009 Cumartesi 13:39
14 Haziran 2009 Pazar tarihinde süper star yazmıştı:
arkadaşlar bakın şimdi dogru tabı vericemmm
e--0............0........................
b......3..1..3..../..3...1...0...1...3/1...0.......0..1....0..0........../1...0......0...1/..0............0
g....................................................2...................2...0../........2........./.....2..0..2/
devamı ;
g...2...0......0...2
d............3........

e....................0.........0
b..0...0..................3
g...........2...0 yorum yazın lütfenn
yorum mu yazıyım bence okadar güzel olmamış uyduruk olmuş ama genede emeğe saygı


Bu Yoruma Cevap Ver
rock_angel* | 27 Eylül 2009 Pazar 20:24
yorumlar cok karışık olmus arkadaslar .kendi tabınızı yorum şeklinde degil de siteye ekleseniz


Bu Yoruma Cevap Ver
bek | 19 Ağustos 2009 Çarşamba 15:34
16 Haziran 2009 Salı tarihinde HyPnose86 yazmıştı:
16 Haziran 2009 Salı tarihinde HyPnose86 yazmıştı:
14 Haziran 2009 Pazar tarihinde süper star yazmıştı:
arkadaşlar bakın şimdi dogru tabı vericemmm
e--0............0........................
b......3..1..3..../..3...1...0...1...3/1...0.......0..1....0..0........../1...0......0...1/..0............0
g....................................................2...................2...0../........2........./.....2..0..2/
devamı ;
g...2...0......0...2
d............3........

e....................0.........0
b..0...0..................3
g...........2...0 yorum yazın lütfenn
saol kardesım gzl olmusta fll yazssaydın daha ıyı olurdu eksık kalmıs yınede saol
eksık klmıs sonun geıtrseydın yınede cok saol
tşkrler calışıcam daha


Bu Yoruma Cevap Ver
süper star | 18 Haziran 2009 Perşembe 12:24
16 Haziran 2009 Salı tarihinde HyPnose86 yazmıştı:
14 Haziran 2009 Pazar tarihinde süper star yazmıştı:
arkadaşlar bakın şimdi dogru tabı vericemmm
e--0............0........................
b......3..1..3..../..3...1...0...1...3/1...0.......0..1....0..0........../1...0......0...1/..0............0
g....................................................2...................2...0../........2........./.....2..0..2/
devamı ;
g...2...0......0...2
d............3........

e....................0.........0
b..0...0..................3
g...........2...0 yorum yazın lütfenn
saol kardesım gzl olmusta fll yazssaydın daha ıyı olurdu eksık kalmıs yınede saol
eksık klmıs sonun geıtrseydın yınede cok saol


Bu Yoruma Cevap Ver
HyPnose86 | 16 Haziran 2009 Salı 21:05
15 Mayıs 2009 Cuma tarihinde silenthillpsp yazmıştı:
15 Mayıs 2009 Cuma tarihinde crueltyyy yazmıştı:
olmus birebir ayni denebilir orjinaliyle, tesekkurler

olmamis diyenlerin gitarla arasi pek yok orasi belli de, yalniz sadece sondan bi onceki paragrafi tam duyamiyorm sarkida daha degisik bisey yapiyorm ben neredeyse ayni ama..

forzaltay klasik gitarinin akorunu yap:)
Olumlu olumsuz her türlü görüşe açığım arkadaşlar. Sonuçta herşey müzik için.

Gitar ve müzik konusunda başarılar...

Eralp
saol bırader cok gzl olmusta sonunu getırseydın


Bu Yoruma Cevap Ver
HyPnose86 | 16 Haziran 2009 Salı 21:05
14 Haziran 2009 Pazar tarihinde süper star yazmıştı:
arkadaşlar bakın şimdi dogru tabı vericemmm
e--0............0........................
b......3..1..3..../..3...1...0...1...3/1...0.......0..1....0..0........../1...0......0...1/..0............0
g....................................................2...................2...0../........2........./.....2..0..2/
devamı ;
g...2...0......0...2
d............3........

e....................0.........0
b..0...0..................3
g...........2...0 yorum yazın lütfenn
saol kardesım gzl olmusta fll yazssaydın daha ıyı olurdu eksık kalmıs yınede saol


Bu Yoruma Cevap Ver
HyPnose86 | 16 Haziran 2009 Salı 18:44
arkadaşlar bakın şimdi dogru tabı vericemmm
e--0............0........................
b......3..1..3..../..3...1...0...1...3/1...0.......0..1....0..0........../1...0......0...1/..0............0
g....................................................2...................2...0../........2........./.....2..0..2/
devamı ;
g...2...0......0...2
d............3........

e....................0.........0
b..0...0..................3
g...........2...0 yorum yazın lütfenn


Bu Yoruma Cevap Ver
süper star | 14 Haziran 2009 Pazar 16:43
15 Mayıs 2009 Cuma tarihinde crueltyyy yazmıştı:
olmus birebir ayni denebilir orjinaliyle, tesekkurler

olmamis diyenlerin gitarla arasi pek yok orasi belli de, yalniz sadece sondan bi onceki paragrafi tam duyamiyorm sarkida daha degisik bisey yapiyorm ben neredeyse ayni ama..

forzaltay klasik gitarinin akorunu yap:)
Olumlu olumsuz her türlü görüşe açığım arkadaşlar. Sonuçta herşey müzik için.

Gitar ve müzik konusunda başarılar...

Eralp


Bu Yoruma Cevap Ver
silenthillpsp | 15 Mayıs 2009 Cuma 10:56
olmus birebir ayni denebilir orjinaliyle, tesekkurler

olmamis diyenlerin gitarla arasi pek yok orasi belli de, yalniz sadece sondan bi onceki paragrafi tam duyamiyorm sarkida daha degisik bisey yapiyorm ben neredeyse ayni ama..

forzaltay klasik gitarinin akorunu yap:)


Bu Yoruma Cevap Ver
crueltyyy | 15 Mayıs 2009 Cuma 10:26
coolthemajeste slide da kaydiriyorsun 1 notadan digerine.


Bu Yoruma Cevap Ver
bed1rhan | 14 Nisan 2009 Salı 22:29
hammer on.." 5h6 msela şimdi 5 perdeye basıyoruz tele 1 vuruş yapıyoruz snra 6. peryede kayıyosun bnm bldiğim bu .. slide de aynı şey..galiba emin değilim yanıltmayayım sizi...


Bu Yoruma Cevap Ver
coolthemajeste | 17 Mart 2009 Salı 15:08
arkadaslar ben yeniyom lutfen biri hammer on ve slide aciklarsa sevinirim :)
tesekurller...


Bu Yoruma Cevap Ver
bed1rhan | 13 Şubat 2009 Cuma 21:15
Olumlu / olumsuz görüş ve önerilerinizi bekliyorum arkadaşlar. Solo taleplerinizi bana iletebilirsiniz. (silenthillpsp@yahoo.com)


Bu Yoruma Cevap Ver
silenthillpsp | 05 Şubat 2009 Perşembe 13:29
supersinn abii yaa ...helal olsun vlla...kulagına saglık


Bu Yoruma Cevap Ver
alperen1956 | 05 Şubat 2009 Perşembe 13:01
Valla klasik gitarada gayet uyuyo ... Bence hiçbir problem yok.. Süper olmuş ellerine sağlık.. Bende heryerde bunu arıyodum xD


Bu Yoruma Cevap Ver
Burak001 | 26 Ocak 2009 Pazartesi 23:07
eline sağlık da olmamış be kuzum. akustik gitarda tutuyor da klasik de tonlar uymuyor.


Bu Yoruma Cevap Ver
forzaltay | 25 Ocak 2009 Pazar 16:44
eline sağlıkta olmamış


Bu Yoruma Cevap Ver
E17 | 24 Ocak 2009 Cumartesi 20:00
süper olmuş emeğine sağlık dostum!..


Bu Yoruma Cevap Ver
sahapa | 19 Ocak 2009 Pazartesi 14:15
yorum yazan yok mu?


Bu Yoruma Cevap Ver
silenthillpsp | 28 Aralık 2008 Pazar 00:12


Siz de Görüş Bildirin

Yorum yazma alanı Akor Merkezi üyelerine özel bir bölümdür. (Giriş Yap / Üye Ol / Şifremi Hatırlat)


PAYLAŞ

Reklam



Anket
serkan94 soruyor:
Sizce En iyi Davulcu hangisidir ?













Sonuçlar | Sonuçlar & Yorumlar
Yeni Anket | Anketler




Reklam


Radyo Dinle
AkorMerkezi.com © 2014
İletişim - Gizlilik Politikası - Kullanım Koşulları - Kurallar - Son Yorumlar - Rastgele

GitarAkor.com kolonisidir. Derleme 0,05 saniye.