Akor Tab Söz Çeviri Anasayfası
Akor|Tab|Söz|Nota Arşivi
Gitar Akorları | Tab,Söz ve Nota Anasayfası | En Yeni Şarkılar | En Popüler Şarkılar | Akor Cetveli

Bilgiler
 
Seslendiren ve Şarkı: Onur Akın - Seviyorum Seni
Biçim: TAB -
Tarih: 22 Mart 2004 Pazartesi
Gönderen: lewent
Toplam Okuyan: 20.659 kişi
Bu Ay Okuyan: 240 kişi
Bu Hafta Okuyan: 39 kişi
 
Beğendiniz mi? Seviyorum Seni Tab sayfasını Şimdi paylaşın:

Onur Akın - Seviyorum Seni - Tab


Puanlama:
 (6 kişi)

Seviyorum Seni şarkısının diğer versiyonlarına bakın >>

Metin boyutu: ( + Büyült ) ( - Küçült)   
e[----------------------------------------  
B[---------------------------------5------
G[-5-5-5--5-7-5-4-5----5-5-5-4-5-7---7----      
D[----------------------------------------       
A[----------------------------------------
E[----------------------------------------



e[---------------------------------------- 
B[----------------------------------------
G[-5-4-5-4-5-4---5----4-4--4-4-5-4---4----      
D[-------------7-------------------7------       
A[----------------------------------------
E[----------------------------------------



e[-------------------------------------------- 
B[--------------------------------------------
G[-4-4-4---4-----5-7-5-4---4---4-------4------   
D[-------7---------------7---7---7-5-7--------  
A[--------------------------------------------
E[--------------------------------------------



e[--------------------------------------------
B[--------------------------------------------
G[-----------------------------4--------------  
D[-7-7-7-7-4-7-5-7---7-7-7-5-7---5-5-3-3-5-5^7  
A[--------------------------------------------
E[--------------------------------------------



e[--------------------------------------------
B[-----------------------------------0-0------
G[-------------0-0--------2-2-0----0-----2----     
D[-5-3-2-----2-----3----3---------------------       
A[--------------------------------------------
E[--------------------------------------------




e[--------------------------------------------
B[--------------------------------------------
G[-2^4-2-0--2-0----2-0------------------------     
D[--------------3------3--2-------------------       
A[--------------------------------------------
E[--------------------------------------------


Seviyorum Seni Tab, AkorMerkezi.com'da yayınlanmıştır.
http://www.akormerkezi.com


İçerik Kısa Linki:


Beğendiniz mi? Seviyorum Seni Tab sayfasını Şimdi paylaşın:


Seviyorum Seni şarkısı için amatör kayıtları dinleyin: (Siz de Ekleyin)

Seviyorum Seni Tab için Komoçotoko'dan Gelenler
Aramalar: onur akin seviyorum seni gitar solo tab, seni seviyirum solo, seviyorum seni gtar tab, onur akın seviyorum seni, seviyorun seni tab, swviryorum seni onur akın solo, gitarla seni seviyorum tab nasıl yapılır, onur akın seviyorum seni gitar solo, akor seviyorum seni, onur akın seviyorum seni notaları
Onur Akın - Seviyorum Seni için Kullanıcı Görüşleri

iğrenç
,


Bu Yoruma Cevap Ver
göztepeli ulaş | 13 Mayıs 2012 Pazar 15:31
01 Ekim 2010 Cuma tarihinde ronnela yazmıştı:
arkadaslar bu nasıl ??

e[----------------------------------------
B[-1-1-1-3-1-0-1------1-1-1-0-1-0-3-1-0---
G[----------------------------------------
D[----------------------------------------
A[----------------------------------------
E[----------------------------------------


e[----------------------------------------
B[-0-0-0-1-0---0-------0-0-0---0---1-0----
G[-------------2----------------2----2-----2--
D[----------------------------------------
A[----------------------------------------
E[----------------------------------------


e[----------------------------------------
B[------- 0--------------------------------
G[-2-2-2---2-0-2--------------------------
D[----------------------------------------
A[----------------------------------------
E[----------------------------------------


e[----------------------------------------
B[--------------0----------------------------
G[-2-2-2-0-2---0-0------0---0-2-0---------
D[---------------------3-----3--------3-2-----
A[----------------------------------------
E[----------------------------------------


e[----------------------------------------
B[----------------------------------------
G[---0-----2-0--------2-0---2-0-----------
D[-2---3-2-----3----------3-----3-2-------
A[----------------------------------------
E[----------------------------------------
denedinmi


Bu Yoruma Cevap Ver
katilkurt | 26 Ocak 2011 Çarşamba 21:59
arkadaslar bu nasıl ??

e[----------------------------------------
B[-1-1-1-3-1-0-1------1-1-1-0-1-0-3-1-0---
G[----------------------------------------
D[----------------------------------------
A[----------------------------------------
E[----------------------------------------


e[----------------------------------------
B[-0-0-0-1-0---0-------0-0-0---0---1-0----
G[-------------2----------------2----2-----2--
D[----------------------------------------
A[----------------------------------------
E[----------------------------------------


e[----------------------------------------
B[------- 0--------------------------------
G[-2-2-2---2-0-2--------------------------
D[----------------------------------------
A[----------------------------------------
E[----------------------------------------


e[----------------------------------------
B[--------------0----------------------------
G[-2-2-2-0-2---0-0------0---0-2-0---------
D[---------------------3-----3--------3-2-----
A[----------------------------------------
E[----------------------------------------


e[----------------------------------------
B[----------------------------------------
G[---0-----2-0--------2-0---2-0-----------
D[-2---3-2-----3----------3-----3-2-------
A[----------------------------------------
E[----------------------------------------


Bu Yoruma Cevap Ver
ronnela | 01 Ekim 2010 Cuma 01:31
arakdaslar bu nasıl ??

e[------------------------------------------------
B[-1-1-1-3-1-0-1------1-1-1-0-1-0-3-1-0---
G[------------------------------------------------
D[------------------------------------------------
A[------------------------------------------------
E[-----------------------------------------------


e[----------------------------------------
B[-0-0-0-1-0---0-------0-0-0---0---1-0----
G[-----------2---------------2---2-----2--
D[----------------------------------------
A[----------------------------------------
E[----------------------------------------


e[----------------------------------------
B[-------0--------------------------------
G[-2-2-2---2-0-2--------------------------
D[----------------------------------------
A[----------------------------------------
E[----------------------------------------


e[----------------------------------------
B[-----------0----------------------------
G[-2-2-2-0-2---0-0------0---0-2-0---------
D[-----------------3------3-------3-2-----
A[----------------------------------------
E[----------------------------------------


e[----------------------------------------
B[----------------------------------------
G[---0-----2-0--------2-0---2-0-----------
D[-2---3-2-----3----------3-----3-2-------
A[----------------------------------------
E[----------------------------------------


Bu Yoruma Cevap Ver
ronnela | 01 Ekim 2010 Cuma 01:29
olmamışşş


Bu Yoruma Cevap Ver
erdalll | 11 Eylül 2008 Perşembe 11:56
hiç olmamıs


Bu Yoruma Cevap Ver
BrknS | 02 Eylül 2008 Salı 21:53
olmamış


Bu Yoruma Cevap Ver
gitar99 | 20 Mart 2008 Perşembe 19:06
ilk dört nota harici yanlış ama ilki C ile başlıyo Am den çıkarmaya çalışmış ama olmamış


Bu Yoruma Cevap Ver
dr.gitarist | 21 Ağustos 2007 Salı 16:20
arkadaslar bu dogru tablo ama profesyonelı deıl kumsalda calarsın belkı


Bu Yoruma Cevap Ver
üye-silinmiş | 18 Ağustos 2006 Cuma 23:58
arkadaslar bu dogru tablo ama profesyonelı deıl kumsalda calarsın belkı


Bu Yoruma Cevap Ver
üye-silinmiş | 18 Ağustos 2006 Cuma 23:58
alakasız.neden her kafasına esenin gönderdiği kabul ediliyo.biz de boşuna vakit kaybediyoruz


Bu Yoruma Cevap Ver
xomoxti | 21 Aralık 2005 Çarşamba 22:08
ilginçççç :))))))))


Bu Yoruma Cevap Ver
chetolga | 13 Aralık 2005 Salı 12:04


Siz de Görüş Bildirin

Yorum yazma alanı Akor Merkezi üyelerine özel bir bölümdür. (Giriş Yap / Üye Ol / Şifremi Hatırlat)


PAYLAŞ

Reklam



Anket
electro_king soruyor:
Gitar sizin için "tam olarak" ne ifade ediyor?











Sonuçlar | Sonuçlar & Yorumlar
Yeni Anket | Anketler




Reklam


Radyo Dinle
AkorMerkezi.com © 2014
İletişim - Gizlilik Politikası - Kullanım Koşulları - Kurallar - Son Yorumlar - Rastgele

GitarAkor.com kolonisidir. Derleme 0,05 saniye.