Akor Tab Söz Çeviri Anasayfası
Akor|Tab|Söz|Nota Arşivi
Gitar Akorları | Tab,Söz ve Nota Anasayfası | En Yeni Şarkılar | En Popüler Şarkılar | Akor Cetveli

Bilgiler
 
Seslendiren ve Şarkı: Orhan Ölmez - Şimdi Hayallerdesin
Biçim: Akor, Gitar Akorları - SOLO
Tarih: 03 Haziran 2013 Pazartesi
Gönderen: ßLU€
Toplam Okuyan: 5.787 kişi
Bu Ay Okuyan: 8 kişi
Bu Hafta Okuyan: 32 kişi
 
Beğendiniz mi? Şimdi Hayallerdesin Akor sayfasını Şimdi paylaşın:

Orhan Ölmez - Şimdi Hayallerdesin - Akor


Puanlama:
 (3 kişi)


Metin boyutu: ( + Büyült ) ( - Küçült)   
ORHAN ÖLMEZ - ŞİMDİ HAYALLERDESİN


E|------------------------------------------------------------------------
B|-----6-------6--6--5--6--8--5-------5--5---5--6--------------------5----
G|-----------------------------------------7------7-------7--7--5--7---5--
D|---7--------------------------------------------------------------------
A|------------------------------------------------------------------------
E|------------------------------------------------------------------------ 

E|------------------------------------------------------------------------
B|------------------------5-----------------------------------------------
G|------7------7--7--5--7---5-----5--5---5--7-----------------------------
D|----7--------------------------------8--------8-------8--8--7--10--8--7-
A|------------------------------------------------------------------------
E|------------------------------------------------------------------------



Em 
Düşlerim bitmek bilmiyor 
F
Gözlerim gülmek bilmiyor 
Am             G
Gönlümde sonsuz arayış 
F                      Em
Sevmek istiyor sevmek istiyor 


C         G
Kalbim acılar dolu 
Am         G 
Kaçmak istercesine 
C           Em
Gönlüm kanatlanıyor 
Am        Em
Uçmak istercesine.... 
F
Aaaaaaahhhhh 
C         G 
Şimdi uzaklardasın 
Am                G
Hayallerdesin rüyalardasın 
Em           Am
Yalnız kendi derdinle 
G                 F
Kendi halinle derinlerdesin 
Am       G
Şimdi uzaklardasın 
F                  Em
Hayallerdesin rüyalardasın
Ağlıyor sessiz sözlerin 
Tanıyor bitkin gözlerin 
Sönmeyen ateşler gibi 
Yanar yüreğim, yanar yüreğim 



Hatam varsa affedin :)
Şimdi Hayallerdesin Akor, AkorMerkezi.com'da yayınlanmıştır.
http://www.akormerkezi.com


İçerik Kısa Linki:


Beğendiniz mi? Şimdi Hayallerdesin Akor sayfasını Şimdi paylaşın:


Orhan Ölmez - Şimdi Hayallerdesin KULLANILAN AKORLAR (Beta)
Em0 2 2 0 0 03 x 2 0 0 0x 2 5 x x 0
F1 3 3 2 1 1x 0 3 2 1 1x 3 3 2 1 1
Amx 0 2 2 1 0x 0 7 5 5 5x 3 2 2 1 0
Gx 10 12 12 12 103 2 0 0 0 33 2 0 0 3 3
C0 3 2 0 1 00 3 5 5 5 33 3 2 0 1 0
Şarkıda kullanılan akorların farklı şekillerde basılışlarıdır. (Detaylı bilgi)

Şimdi Hayallerdesin Akor için Komoçotoko'dan Gelenler
Aramalar: orhan ölmez şimdiu zaklardasin akor, düşlerim bitmek bilmiyor nota, orhan olmez duslerım bıtmek bılmıyor, hayallerdesin, şimdi+hayallerdesin+akor, şimdi uzaklardasın hayallerdesin rüyalardasın, şimdi uzaklardasın hayallerdesin gitar akorları, şimdi hayallerdesin rüyalardasın, simdi ruyalardasın, Şimdi hayallerdesn
Orhan Ölmez - Şimdi Hayallerdesin için Kullanıcı Görüşleri

Henüz buraya yazan çizen olmamış. Yorum yapmak için buraya tıklayabilirsiniz.


Siz de Görüş Bildirin

Yorum yazma alanı Akor Merkezi üyelerine özel bir bölümdür. (Giriş Yap / Üye Ol / Şifremi Hatırlat)


PAYLAŞ

Reklam



Anket
Enos soruyor:
Ufak cafelerde çıkan 16 yaşındaki biriyim, Sizce sahne ismim olmalı mı?







Sonuçlar | Sonuçlar & Yorumlar
Yeni Anket | Anketler




Reklam


Radyo Dinle
AkorMerkezi.com © 2014
İletişim - Gizlilik Politikası - Kullanım Koşulları - Kurallar - Son Yorumlar - Rastgele

GitarAkor.com kolonisidir. Derleme 0,06 saniye.