Akor Tab Söz Çeviri Anasayfası
Akor|Tab|Söz|Nota Arşivi
Gitar Akorları | Tab,Söz ve Nota Anasayfası | En Yeni Şarkılar | En Popüler Şarkılar | Akor Cetveli

Bilgiler
 
Seslendiren ve Şarkı: Oyun Havası - Misket
Biçim: TAB - SOLO
Tarih: 29 Ekim 2010 Cuma
Gönderen: Meite
Toplam Okuyan: 62.943 kişi
Bu Ay Okuyan: 590 kişi
Bu Hafta Okuyan: 172 kişi
 
Beğendiniz mi? Misket Tab sayfasını Şimdi paylaşın:
DİKKAT!
Misket Tab sayfasını düzgün görüntüleyemiyor olabilirsiniz.
Eğer böyle bir sıkıntınız varsa tıklayın.

Oyun Havası - Misket - Tab


Puanlama:
 (43 kişi)

Misket şarkısının diğer versiyonlarına bakın >>

Metin boyutu: ( + Büyült ) ( - Küçült)   
 oy farfara   farfara     ateşde düştü         şalvara        
E:----------|-----------|--------------|------------|
B:--1-1-1-1-|--1-0--1-0-|--0-1-3-1-3-1-|--1-0---1-0-|
G:----------|------2----|--------------|------2-----|
D:----------|-----------|--------------|------------|
A:----------|-----------|--------------|------------|
E:----------|-----------|--------------|------------|


   ağzım dilim           kurudu                kız sana        yalvara yalvara
E:--------------|----------------|-----------------|-----------1-1-0-----|
B:--0-1-3-1-3-1-|--1-0---1-0-----|-----------------|-1-3-1-3-1-------3-1-|
G:--------------|------2-----2-0-|--0-2-4-2--0-----|---------------------|
D:--------------|----------------|-------------3-2-|---------------------|
A:--------------|----------------|-----------------|---------------------|
E:--------------|----------------|-----------------|---------------------|
Misket Tab, AkorMerkezi.com'da yayınlanmıştır.
http://www.akormerkezi.com


İçerik Kısa Linki:


Beğendiniz mi? Misket Tab sayfasını Şimdi paylaşın:


Misket Tab için Komoçotoko'dan Gelenler
Aramalar: çiftetelli solo akor, oyun havası - misket bass cover, oy farfara farfara notaları, gitar oyun havası tab, ankara/merkez/oyun/havasl/, misget nota ve akorları, ankara havası akor, dilara oyun havası akorları, misket akor tab, snkara havasi akort
Oyun Havası - Misket için Kullanıcı Görüşleri


E:--------------|----------------|-----------------|----------------------1-1-0----1-0----I
B:--0-1-3-1-3-1-|--1-0---1-0-----|-----------------|---1-3-1-3-1----------3---------I
G:--------------|------2-----2-0-|--0-2-4-2--0-----|------------------I
D:--------------|----------------|-------------3-2-|---------------------|
A:--------------|----------------|-----------------|----------------------|
E:--------------|----------------|-----------------|----------------------|

arkadaşlar sonunu böle deneyin gayet uyumlu oluyor.. kolay gelsin..


Bu Yoruma Cevap Ver
IIIUzMaNIII | 18 Haziran 2013 Salı 20:54
gayet güzel..


Bu Yoruma Cevap Ver
blackyoung | 28 Nisan 2012 Cumartesi 12:33
sonu yanlış gibi 1 altta olması gerekiyo ve sonunda bide 0 olması lazım sanırsam


Bu Yoruma Cevap Ver
iismett | 17 Ocak 2012 Salı 04:45
gerçekten güzel kulağa hoş gelior


Bu Yoruma Cevap Ver
Melik Can | 19 Mayıs 2011 Perşembe 00:56
haha çok güzel olmuş kulağa çok hoş geliyo :)


Bu Yoruma Cevap Ver
ShaLSky | 06 Nisan 2011 Çarşamba 22:37


Siz de Görüş Bildirin

Yorum yazma alanı Akor Merkezi üyelerine özel bir bölümdür. (Giriş Yap / Üye Ol / Şifremi Hatırlat)


PAYLAŞ

Reklam



Anket
farukbalsara soruyor:
Metallica denilince aklınıza ilk gelen ?









Sonuçlar | Sonuçlar & Yorumlar
Yeni Anket | Anketler






Radyo Dinle
AkorMerkezi.com © 2014
İletişim - Gizlilik Politikası - Kullanım Koşulları - Kurallar - Son Yorumlar - Rastgele

GitarAkor.com kolonisidir. Derleme 0,06 saniye.