Akor Tab Söz Çeviri Anasayfası
Akor|Tab|Söz|Nota Arşivi
Gitar Akorları | Tab,Söz ve Nota Anasayfası | En Yeni Şarkılar | En Popüler Şarkılar | Akor Cetveli

Bilgiler
 
Seslendiren ve Şarkı: Pilli Bebek - Duruyor Zaman
Biçim: Akor, Gitar Akorları - INTRO
Tarih: 16 Mayıs 2011 Pazartesi
Gönderen: etrkuz
Toplam Okuyan: 33.254 kişi
Bu Ay Okuyan: 1.008 kişi
Bu Hafta Okuyan: 146 kişi
 
Beğendiniz mi? Duruyor Zaman Akor sayfasını Şimdi paylaşın:
DİKKAT!
Duruyor Zaman Akor sayfasını düzgün görüntüleyemiyor olabilirsiniz.
Eğer böyle bir sıkıntınız varsa tıklayın.

Pilli Bebek - Duruyor Zaman - Akor


Puanlama:
 (62 kişi)

Duruyor Zaman şarkısının diğer versiyonlarına bakın >>

Metin boyutu: ( + Büyült ) ( - Küçült)   
                  GiRİŞ

     Dm                         
E||----------------------1-----------------------|
B||----------1----------------3------------------|
G||-----2---------2----------------2-------------|      x 4
D||--0-------------------------------------------|
A||-------------------------------------0h1---3--|
E||----------------------------------------------|


             Sözlere aşağıdaki arpejle başlıyor sonra ritimle devam ediyor, siz 
kafanıza göre takılın..



        Sadece ikimizin                        uyandığı saatlerde

    Gm                                    F     
--3--------------------3--------------|--1---------------------1--------------|
-------------3----------------3-------|--------------1--------------1---------|
--------3---------3----------------3--|-------2-----------2----------------2--|
--------------------------------------|---------------------------------------|
--------------------------------------|---------------------------------------|
--3-----------------------------------|--1------------------------------------|


       Duruyor                zaman

    A                             Dm X 2     
---0------------0-------------|----------------------1--------------------------
----|
---------2-----------2--------|----------1----------------3---------------------
----|
-----2------2-------------2---|-----2---------2----------------2----------------
----|
------------------------------|--0----------------------------------------------
----|
---0--------------------------|-------------------------------------0h------1---
-3--|
------------------------------|-------------------------------------------------
----|



Gm                F         
Sadece ikimizin uyandığı saatlerde
A            Dm
Duruyor zaman
Gm               F
Çünkü sadece sen tutuklarsın beni
A                  Dm
Apansız uyanış gibi


Gm        
Gel kızım sokul bana
F                         
Bir kez daha alayım kokusunu
A                  Dm
Benim küçük bahçemin

Gm                     F
Büyüsen de, gitsen de hala bekliyor gibi beni
A                   Dm
Uzanmış küçük ellerin


Gm         
Gel kızım sokul bana
F
Bir kez daha alayım kokusunu
A                  Dm
Benim küçük bahçemin


Gm                       F
Büyüsen de, gitsen de hala bekliyor gibi beni,
A                  Dm
Senin küçük ellerin.

Duruyor Zaman Akor, AkorMerkezi.com'da yayınlanmıştır.
http://www.akormerkezi.com


İçerik Kısa Linki:


Beğendiniz mi? Duruyor Zaman Akor sayfasını Şimdi paylaşın:


Pilli Bebek - Duruyor Zaman KULLANILAN AKORLAR (Beta)
Dmx 0 0 2 3 1
Gm3 5 5 3 3 3x x 0 3 3 3
F1 3 3 2 1 1x 0 3 2 1 1x 3 3 2 1 1
A0 0 2 2 2 00 4 x 2 5 05 7 7 6 5 5
Şarkıda kullanılan akorların farklı şekillerde basılışlarıdır. (Detaylı bilgi)

Duruyor Zaman şarkısı için amatör kayıtları dinleyin: (Siz de Ekleyin)

Duruyor Zaman Akor için Komoçotoko'dan Gelenler
Aramalar: pilli bebek duruyor zaman indir, pilli bebek fon müziği indir, pilli bebek duruyor zaman orjinal akorları, Gel kızım gitar akorları, akor duruyor zaman, duruyor zaman pilli bebek, büyüsende gitsende akor, pilli bebek kizim akorl, pilli bebek duruyor zaman söz, pilli bebek kızım akor
Pilli Bebek - Duruyor Zaman için Kullanıcı Görüşleri

Kesinlikle Dm


Bu Yoruma Cevap Ver
siyah_8 | 05 Temmuz 2014 Cumartesi 15:25
Ritmi ney? yardım edin ritim?


Bu Yoruma Cevap Ver
byghost878 | 23 Mart 2014 Pazar 18:25
F lerin Hepsi Dm olmalı


Bu Yoruma Cevap Ver
erdenburakk | 01 Aralık 2013 Pazar 19:26
10 Haziran 2011 Cuma tarihinde etrkuz yazmıştı:
29 Mayıs 2011 Pazar tarihinde ANaTHeMa yazmıştı:
F'lerin hepsi Dm olacak...
F doğru kardeşim bilmiyosun boş boş konuşma
Bir kere olsun konsere gitmiş olsaydın o F'lerin Dm olduğunu bilirdin. Ayrıca A'lar A7.


Bu Yoruma Cevap Ver
A-Can | 08 Temmuz 2013 Pazartesi 02:12
Güzel bir çalışma elinize sağlık. Ritmini, ölçüsünü geçtik de şu şarkıların ölçüsü verilse iyi olurdu...(Tüm şarkılar için söylüyorum)


Bu Yoruma Cevap Ver
51minutes | 18 Mart 2012 Pazar 01:47
29 Mayıs 2011 Pazar tarihinde ANaTHeMa yazmıştı:
F'lerin hepsi Dm olacak...
Dm'ye katılıyorum. onun dışında akorlar çok iyi. eline sağlık.


Bu Yoruma Cevap Ver
dvc | 31 Ocak 2012 Salı 20:17
F'lerin hepsi Ç olacak. A'lar da P olursa iyi olur.


Bu Yoruma Cevap Ver
nikniknikerek | 20 Ocak 2012 Cuma 13:08
şu giriş yerini çalışını biriniz anlatırsanız çok iyi olur hiç anlamıyorum o rakamları


Bu Yoruma Cevap Ver
TRikimaru | 27 Kasım 2011 Pazar 01:05
Güzel


Bu Yoruma Cevap Ver
Alone.Dark | 22 Kasım 2011 Salı 17:30
vov 34 kişi 5 yıldız vermiş


Bu Yoruma Cevap Ver
orkun44 | 19 Ekim 2011 Çarşamba 11:43
Dm
E||-------------------- --1-----------------------|
B||----------1---------3-------3------------------|
G||-----2---------2---------------2-------------| x 4
D||--0-------------------------------------------|
A||-------------------------------------0h1---3--|
E||----------------------------------------------|

si telinde bir re basılsa daha iyi oturuyor gibime geldi


Bu Yoruma Cevap Ver
magistra86 | 17 Ekim 2011 Pazartesi 02:37
20 Haziran 2011 Pazartesi tarihinde memo0048 yazmıştı:
akorlar, giriş tablarıda gayet doğru kulağına sağlıklık kardeşim.
sağol


Bu Yoruma Cevap Ver
etrkuz | 09 Temmuz 2011 Cumartesi 18:07
ton biraz farklı ama kusursuz


Bu Yoruma Cevap Ver
orkun44 | 08 Temmuz 2011 Cuma 22:43
akorlar, giriş tablarıda gayet doğru kulağına sağlıklık kardeşim.


Bu Yoruma Cevap Ver
memo0048 | 20 Haziran 2011 Pazartesi 12:19
yapılan hiç bir eleştiriye tahammülün yok. bence sen vazgeç buralara içerik eklemekten, üzülürsün durduk yere...
mütemadiyen ağzını bozman bunun göstergesi.


Bu Yoruma Cevap Ver
ANaTHeMa | 14 Haziran 2011 Salı 00:36
06 Haziran 2011 Pazartesi tarihinde bayklavye yazmıştı:
solonun alakası bile yok
solo yok zaten gerizekalı


Bu Yoruma Cevap Ver
etrkuz | 10 Haziran 2011 Cuma 21:00
29 Mayıs 2011 Pazar tarihinde ANaTHeMa yazmıştı:
F'lerin hepsi Dm olacak...
F doğru kardeşim bilmiyosun boş boş konuşma


Bu Yoruma Cevap Ver
etrkuz | 10 Haziran 2011 Cuma 20:59
solonun alakası bile yok


Bu Yoruma Cevap Ver
bayklavye | 06 Haziran 2011 Pazartesi 20:52
F'lerin hepsi Dm olacak...


Bu Yoruma Cevap Ver
ANaTHeMa | 29 Mayıs 2011 Pazar 21:36


Siz de Görüş Bildirin

Yorum yazma alanı Akor Merkezi üyelerine özel bir bölümdür. (Giriş Yap / Üye Ol / Şifremi Hatırlat)


PAYLAŞ

Reklam



Anket
caglar48 soruyor:
Hangisini tercih edersiniz?










Sonuçlar | Sonuçlar & Yorumlar
Yeni Anket | Anketler




Reklam


Radyo Dinle
AkorMerkezi.com © 2014
İletişim - Gizlilik Politikası - Kullanım Koşulları - Kurallar - Son Yorumlar - Rastgele

GitarAkor.com kolonisidir. Derleme 0,05 saniye.