Akor Tab Söz Çeviri Anasayfası
Akor|Tab|Söz|Nota Arşivi
Gitar Akorları | Tab,Söz ve Nota Anasayfası | En Yeni Şarkılar | En Popüler Şarkılar | Akor Cetveli

Bilgiler
 
Seslendiren ve Şarkı: Pilli Bebek - Haram Geceler
Biçim: Akor, Gitar Akorları - FULL
Tarih: 06 Ağustos 2012 Pazartesi
Gönderen: mrtlys
Toplam Okuyan: 56.715 kişi
Bu Ay Okuyan: 3.257 kişi
Bu Hafta Okuyan: 692 kişi
 
Beğendiniz mi? Haram Geceler Akor sayfasını Şimdi paylaşın:

Pilli Bebek - Haram Geceler - Akor


Puanlama:
 (14 kişi)

Haram Geceler şarkısının diğer versiyonlarına bakın >>

Metin boyutu: ( + Büyült ) ( - Küçült)   
İntro solo:
       
G|-7-7-7--6-6-6--4-4-4--2-2-2---------|       
D|------------------------------------|   x2   
A|------------------------------------|       
E|------------------------------------|
      

G|-4--4-4-6-2--2-2--7-7-6-4-2h4s6--6-6-6-2--0h2-0--4-4-2-0-----|        
D|---------------------------------------------------------4---|   x2      
A|-------------------------------------------------------------|       
E|-------------------------------------------------------------|


G|-6h7-4----4h6-2-0---2h4-0----------2h4----|        
D|-------7------------------4-4--4h5--------|       
A|------------------------------------------|       
E|------------------------------------------|


G|-6h7-4----4h6-2-0---2h4-0---------0-2~~---|        
D|-------7------------------4-4---4---------|       
A|------------------------------------------|       
E|------------------------------------------|


G|-9--7--6--4--2--0-------------------------|        
D|------------------4~~---------------------|       
A|------------------------------------------|       
E|------------------------------------------|

Akorlar:

F#m        Bm
Aklım başımda değil ki 
         G    F#m
Sebebini bilmiyorum
F#m        Bm 
Bize nazar değdi inan 
          G   F#m
Adım gibi biliyorum

Bm        G      F#m 
Yine bana haram geceler
F#m7       G    F#m
Senin için ağlıyorum
Bm            G      F#m 
Yar yine bana haram geceler
F#m7       G    F#m 
Senin için ağlıyorum 

Bm        G   F#m
Yanıyorum yanıyorum
Bm           G   F#m
Ah yanıyorum yanıyorum 

Bm            G      F#m 
Yar yine bana haram geceler
F#m7       G    F#m            x2 
Senin için ağlıyorum 
Haram Geceler Akor, AkorMerkezi.com'da yayınlanmıştır.
http://www.akormerkezi.com


İçerik Kısa Linki:


Beğendiniz mi? Haram Geceler Akor sayfasını Şimdi paylaşın:


Pilli Bebek - Haram Geceler KULLANILAN AKORLAR (Beta)
F#m2 4 4 2 2 2x 4 4 2 2 2x x 4 2 2 2
Bm2 2 4 4 3 2x 2 4 4 3 2x x 0 4 3 2
Gx 10 12 12 12 103 2 0 0 0 33 2 0 0 3 3
F#m70 0 2 2 2 20 x 4 2 2 02 x 2 2 2 0
Şarkıda kullanılan akorların farklı şekillerde basılışlarıdır. (Detaylı bilgi)

Haram Geceler şarkısı için amatör kayıtları dinleyin: (Siz de Ekleyin)

Haram Geceler Akor için Komoçotoko'dan Gelenler
Aramalar: haram geceler akor merkezi pilli bebek, haram geceler ritmi, haram geceler ritim, yine bana haram geceler akor, haram geceler solo akormerkezi, pilli bebek - haram geceler tab, pilli bebek haram geceler, geceler haram bana akor, haram geceler akr, yine bana haram geceler
Pilli Bebek - Haram Geceler için Kullanıcı Görüşleri

Çok güzel olmuş yalnız küçük bir ekleme yapacağım.

BM - G - F#M diye giden akor dizisine ''A'' akorunu ekliyoruz.

Şöyle ki

BM - A - G - F#M

Sözlerle deneyin ne dediğimi anlayacaksınız.


Bu Yoruma Cevap Ver
Rizado | 17 Temmuz 2014 Perşembe 03:02
ilk başı

D-12-12--12-----11--11--11-----9---9---9-----7---7------
A--9---9---9-------9---9---9------9---9---9-----9---9------


Bu Yoruma Cevap Ver
mehmet12 | 05 Ekim 2013 Cumartesi 15:01
yanlış yorum :)


Bu Yoruma Cevap Ver
ultrAbdul | 12 Haziran 2013 Çarşamba 11:45
bence la telinden çalın soloyu daha iyi uyuyor hemde ritim kısmını çözemedim aslında çözdümde daha iyi olabilir


Bu Yoruma Cevap Ver
ultrAbdul | 12 Haziran 2013 Çarşamba 11:40
Bm (A) G F#m
Yar yine bana haram geceler

A kullanınca daha hoş oluyo


Bu Yoruma Cevap Ver
ReTeli | 25 Mayıs 2013 Cumartesi 19:56
sol (g) akorlarda sanki biraz çıkıntı yapıyo fa diyezden sonra tam oturmuyo araya. başka akor önerisi olan var mı?


Bu Yoruma Cevap Ver
yumurlusucurta | 03 Mart 2013 Pazar 02:01
arkadaşlar hoş bişi buldum: giriş solosunda çif tel vurulyo (en tepeeki birinci satır tabında) şöyleki:

7de ve 6dayken serçe parmak d teli 9. perdede ; 4de ve 2deyken d telinde 4. perde tutuluyo. ve iki tele birlikte üst alt üstal üstalt.... diye vuruluyo

bilgilerinize arz ederim :))


Bu Yoruma Cevap Ver
fridayman | 13 Şubat 2013 Çarşamba 18:14
la sol fa mi 4lüsünün transpozesi aslında..


Bu Yoruma Cevap Ver
pancar123 | 19 Kasım 2012 Pazartesi 22:12
05 Kasım 2012 Pazartesi tarihinde bensenbizonlar yazmıştı:
Başarılı olmuş:) emeğine sağlık..:)
Teşekkürler :)


Bu Yoruma Cevap Ver
mrtlys | 05 Kasım 2012 Pazartesi 22:45
Başarılı olmuş:) emeğine sağlık..:)


Bu Yoruma Cevap Ver
bensenbizonlar | 05 Kasım 2012 Pazartesi 19:19
4-4'lük rock ritmiyle çalabilirsiniz teşekkür ederim :)


Bu Yoruma Cevap Ver
mrtlys | 07 Eylül 2012 Cuma 22:58
solo çok guzel tebrikler

ritim nasıl atacagım yardım


Bu Yoruma Cevap Ver
hayalet55 | 31 Ağustos 2012 Cuma 20:05


Siz de Görüş Bildirin

Yorum yazma alanı Akor Merkezi üyelerine özel bir bölümdür. (Giriş Yap / Üye Ol / Şifremi Hatırlat)


PAYLAŞ

Reklam



Anket
yakopa soruyor:
Gitarda çalarken en önemli olmazsa olmaz dediğiniz özellik?









Sonuçlar | Sonuçlar & Yorumlar
Yeni Anket | Anketler




Reklam


Radyo Dinle
AkorMerkezi.com © 2014
İletişim - Gizlilik Politikası - Kullanım Koşulları - Kurallar - Son Yorumlar - Rastgele

GitarAkor.com kolonisidir. Derleme 0,09 saniye.