Akor Tab Söz Çeviri Anasayfası
Akor|Tab|Söz|Nota Arşivi
Gitar Akorları | Tab,Söz ve Nota Anasayfası | En Yeni Şarkılar | En Popüler Şarkılar | Akor Cetveli

Bilgiler
 
Seslendiren ve Şarkı: Pinhani - Beni Al
Biçim: TAB -
Tarih: 09 Kasım 2006 Perşembe
Gönderen: exchanger
Toplam Okuyan: 134.725 kişi
Bu Ay Okuyan: 2.205 kişi
Bu Hafta Okuyan: 96 kişi
 
Beğendiniz mi? Beni Al Tab sayfasını Şimdi paylaşın:

Pinhani - Beni Al - Tab


Puanlama:
 (147 kişi)

Beni Al şarkısının diğer versiyonlarına bakın >>

Metin boyutu: ( + Büyült ) ( - Küçült)   
E----3-2-3--2-3-2-3---2-3-5--3-2-3----3-2-3--2-3-2-3---2-3-5--3-2-3-
B----------------------------------3------------------------------------------------
G------------------------------------------------------------------------------------
D------------------------------------------------------------------------------------
A------------------------------------------------------------------------------------
E------------------------------------------------------------------------------------

Beni Al Tab, AkorMerkezi.com'da yayınlanmıştır.
http://www.akormerkezi.com


İçerik Kısa Linki:


Beğendiniz mi? Beni Al Tab sayfasını Şimdi paylaşın:


Beni Al şarkısı için amatör kayıtları dinleyin: (Siz de Ekleyin)

Beni Al Tab için Komoçotoko'dan Gelenler
Aramalar: pinhani al beni, beni ai tab, beni al tab gitar, kavak yelleri şarkısı tab, sade sar beni tab, beni al tabp, bugünüm yarın olsa tab, Tek hatıra tab şeklinde solo, beni al kucağina org, beni al yab
Pinhani - Beni Al için Kullanıcı Görüşleri

ggayet güzel


Bu Yoruma Cevap Ver
ÖGRENCİ_35 | 04 Ocak 2014 Cumartesi 14:22
19 Aralık 2011 Pazartesi tarihinde dumancıyız yazmıştı:
BENİ AL (SOLO)

E-----------------------------------------------------------------------
B--1-0-1-0-1-0-1-0-1-3-1-0-1------1-0-1-0-1-0-1-0-1-3-1-0-1
G----------------------------------0------------------------------------
D-----------------------------------------------------------------------
A-----------------------------------------------------------------------
E-----------------------------------------------------------------------
Hatırla sevgili

---------0-----------0-}------------0-------------}-------------------------------1---0------------------------------}
-----1-------3--1-----}---------1------3--1--0--} ---0---1--3--1-----0--3------------0----1--3--1--0----------}
-2---------------------} ----2--------------------} --------------------------------------------------------------2--}


Bu Yoruma Cevap Ver
Gitaristfunda | 13 Nisan 2013 Cumartesi 23:07
güseLL


Bu Yoruma Cevap Ver
Sm3aGoLL | 27 Ekim 2012 Cumartesi 12:23
Yeni öğrenen arkadaşlara tek telden solo. Belki yardımcı olur.

e---5-4-5-4-5-4-5-5-4-5-7-5-4-5-0---5-4-5-4-5-4-5-5-4-5-7-5-4-5-

e---9-10-12-10-9-10-7---7-9-10-9-7-9-5---5-7-9-7-5-7-5-7-5-7-5-4-5-4-3-2-

İyi çalışmalar...


Bu Yoruma Cevap Ver
HalilKaya | 20 Haziran 2012 Çarşamba 00:47
bence böyle:
e: 3-2-3-2-3-2-3-2-3-5-3-2-3---2-3-2-3-2-3-2-3-2-3-5-3-2-3
b: ---------------------------------4


Bu Yoruma Cevap Ver
genç_gitarcı | 14 Mayıs 2012 Pazartesi 21:56
Merhaba bir şey söylemek istiyorum. Bir oyunun müziğini tab olarak çıkartabilir misiniz acaba? http://www.bilardooyna.com/super-bilardo.html Mesaj atarsanız sevinirim.


Bu Yoruma Cevap Ver
GuitarBeginner | 01 Nisan 2012 Pazar 20:27
BENİ AL (SOLO)

E-----------------------------------------------------------------------
B--1-0-1-0-1-0-1-0-1-3-1-0-1------1-0-1-0-1-0-1-0-1-3-1-0-1
G----------------------------------0------------------------------------
D-----------------------------------------------------------------------
A-----------------------------------------------------------------------
E-----------------------------------------------------------------------


Bu Yoruma Cevap Ver
dumancıyız | 19 Aralık 2011 Pazartesi 17:16
BENİ AL (GİRİŞ)

E---0-1-3-1-3-0-1---------0-1-0----0----------0----------------------
B--------------------3-----3---------3---1---1-3---3-1-3--3-1-0--0-1
G------------------------------------------------------------2-------2----
D--------------------------------------------------------------------------
A--------------------------------------------------------------------------
E--------------------------------------------------------------------------


Bu Yoruma Cevap Ver
dumancıyız | 19 Aralık 2011 Pazartesi 17:08
http://www.akormerkezi.com/fck/editor/images/smiley/msn/wink_smile.gif


Bu Yoruma Cevap Ver
kaan deniz | 07 Nisan 2011 Perşembe 20:12
çok güzel yapanın ellerine sağşık...


Bu Yoruma Cevap Ver
kaan deniz | 30 Mart 2011 Çarşamba 19:36
alın size tab :D



e|--------------|--------------|--------------|------------------|
b|-1-0-1-0-1-0-1|-0-1-3-1-0-1--|-1-0-1-0-1-0-1|-0-1-3-1-0-1------|
g|--------------|-------------0|--------------|-------------0-2-4|
d|--------------|--------------|--------------|------------------|
a|--------------|--------------|--------------|------------------|
E|--------------|--------------|--------------|------------------|

e|--------------|--------------|--------------|------------|
b|-1-0-1-0-1-0-1|-0-1-3-1-0-1--|-1-0-1-0-1-0-1|-0-1-3-1-0-1|
g|--------------|-------------0|--------------|------------|
d|--------------|--------------|--------------|------------|
a|--------------|--------------|--------------|------------|
E|--------------|--------------|--------------|------------|




e|-0-1-3-1-0-1------|---0-1-0---0---------|-----0---------------------------------|
b|-------------3----|-3-------3---1-------|-1-3---3-1-3---3-0-0-1-0---------------|
g|------------------|---------------------|-------------2-----------2-0-----------|
d|------------------|---------------------|---------------------------------------|
a|------------------|---------------------|---------------------------------------|
E|------------------|---------------------|---------------------------------------|
bugünüm yarın olsa ya da hep yeni baştan/yaşamak ne güzel olur hiç başlamamışsan

e|-0-1-3-1-0-1-----|---0-1-0---0-----|-----0---------------|---------------|
b|-------------3---|-3-------3---1---|-1-3---3-1-3---3-----|-0-1-0---0-1---|
g|-----------------|-----------------|-------------2-------|-------2-------|
d|-----------------|-----------------|---------------------|---------------|
a|-----------------|-----------------|---------------------|---------------|
E|-----------------|-----------------|---------------------|---------------|
geriye ne kalırdı yaşananları atsan/seni bir daha yaşamak isterim aslında

e|----------------|----------------|-----------------|-------------------|
b|-1-0-1-0-1-0-1--|-0-1-3-1-0-1----|-1-0-1-0-1-0-1---|-0-1-3-1-0-1-------|
g|----------------|-------------0--|-----------------|-------------------|
d|----------------|----------------|-----------------|-------------------|
a|----------------|----------------|-----------------|-------------------|
E|----------------|----------------|-----------------|-------------------|
beni al kucağına elini belime sar/beni almadığın an üşürüm sabaha kadar

e|----------------|----------------|-----------------|--------------|
b|-1-0-1-0-1-0-1--|-0-1-3-1-0-1----|-1-0-1-0-1-0-1---|-0-1-3-1-0-1--|
g|----------------|-------------0--|-----------------|--------------|
d|----------------|----------------|-----------------|--------------|
a|----------------|----------------|-----------------|--------------|
E|----------------|----------------|-----------------|--------------|
beni al kucağına elini belime sar/beni almadığın an ölürüm beni al

Ara Solo
e|--------------|--------------|--------------|------------------|
b|-1-0-1-0-1-0-1|-0-1-3-1-0-1--|-1-0-1-0-1-0-1|-0-1-3-1-0-1------|
g|--------------|-------------0|--------------|-------------0-2-4|
d|--------------|--------------|--------------|------------------|
a|--------------|--------------|--------------|------------------|
E|--------------|--------------|--------------|------------------|

e|--------------|--------------|--------------|------------|
b|-1-0-1-0-1-0-1|-0-1-3-1-0-1--|-1-0-1-0-1-0-1|-0-1-3-1-0-1|
g|--------------|-------------0|--------------|------------|
d|--------------|--------------|--------------|------------|
a|--------------|--------------|--------------|------------|
E|--------------|--------------|--------------|------------|

e|-0-1-3-1-0-1------|---0-1-0---0------|-----0----------------------------|
b|-------------3----|-3-------3---1----|-1-3---3-1-3---3-0-0-1-0----------|
g|------------------|------------------|-------------2-----------2-0------|
d|------------------|------------------|----------------------------------|
a|------------------|------------------|----------------------------------|
E|------------------|------------------|----------------------------------|
biraz önce uyurken seni koynuma aldım/dudağından öperken uykudan uyandım

e|-0-1-3-1-0-1------|---0-1-0---0--------|-----0---------------|---------------|
b|-------------3----|-3-------3---1------|-1-3---3-1-3---3-----|-0-1-0---0-1---|
g|------------------|--------------------|-------------2-------|-------2-------|
d|------------------|--------------------|---------------------|---------------|
a|------------------|--------------------|---------------------|---------------|
E|------------------|--------------------|---------------------|---------------|
sana böyle uzakken seni bir daha sevdim/yanına gelebilsem bir daha dönmezdim

e|----------------|----------------|-----------------|-------------------|
b|-1-0-1-0-1-0-1--|-0-1-3-1-0-1----|-1-0-1-0-1-0-1---|-0-1-3-1-0-1-------|
g|----------------|-------------0--|-----------------|-------------------|
d|----------------|----------------|-----------------|-------------------|
a|----------------|----------------|-----------------|-------------------|
E|----------------|----------------|-----------------|-------------------|
beni al kucağına elini belime sar/beni almadığın an üşürüm sabaha kadar

e|----------------|----------------|-----------------|--------------|
b|-1-0-1-0-1-0-1--|-0-1-3-1-0-1----|-1-0-1-0-1-0-1---|-0-1-3-1-0-1--|
g|----------------|-------------0--|-----------------|--------------|
d|----------------|----------------|-----------------|--------------|
a|----------------|----------------|-----------------|--------------|
E|----------------|----------------|-----------------|--------------|
beni al kucağına elini belime sar/beni almadığın an ölürüm beni al

e|-----------------|-------------------|
b|-1-0-1-0-1-0-1---|-0-1-3-1-0-1-------|
g|-----------------|-------------------|
d|-----------------|-------------------|
a|-----------------|-------------------|
E|-----------------|-------------------|
beni almadığın an üşürüm sabaha kadar



Bu Yoruma Cevap Ver
goztepele | 10 Mart 2011 Perşembe 18:49
05 Ocak 2011 Çarşamba tarihinde 2utku2 yazmıştı:
15 Ağustos 2010 Pazar tarihinde John :] yazmıştı:
16 Haziran 2009 Salı tarihinde HyPnose86 yazmıştı:
--0-1-3-1-0-1----I-----0-1-0------0-----I--------0-----------------------------------I
-----------------3--I-3-----------3------1-I--1-3------3-1-3------3-0-0-1-0--------I
---------------------I-----------------------I---------------------0----------------2--0-I



--0-1-3-1-0-1------I------0-1-0------0-----I-------0-----------------------I---------------------I
-------------------3--I--3-----------3------1-I-1-3------3-1-3-------3------I-0-1-0--------0-1-I
----------------------I-------------------------I---------------------0----------I----------2---------I



---------------------I------------------------I--------------------I------------------------I------------------I
--1-0-1-0-1-0-1---I---0-1-3-1-0-1-------I-1-0-1-0-1-0-1--I--0-1-3-1-0-1--------I-1-0-1-0-1-0-1-I
----------------------I-------------------0---I-------------------I--------------------0-0-I------------------I





----------------------I--------------------I-------------------I
--0-1-3-1-0-1------I-1-0-1-0-1-0-1---I--0-1-3-1-0-1---I
-------------------0--I--------------------I-------------------I


EMEGE SAYGI AMA BNCE BOLE DAHA DORU


saol kardeş ben de bunu arıyodum :D
emeğe saygı çok güzel olmuş
biri kalından dieri inceden oluo ;
Mesela içerim ben bu akşam ya la telinden , ya da si telinden başlıo ikisi de doru ;)


Bu Yoruma Cevap Ver
nicik | 07 Mart 2011 Pazartesi 21:40
18 Ağustos 2009 Salı tarihinde DieselTRoniC yazmıştı:
B telindeki 3 bence de olmayacak . Orda 0 vurunca daha ritmik ve orjinaline yakın cıkıyor .
ßu deqiL yaa.. denedim caLınıyo ama çok karışık !!


Bu Yoruma Cevap Ver
faza | 13 Şubat 2011 Pazar 12:09
15 Ağustos 2010 Pazar tarihinde John :] yazmıştı:
16 Haziran 2009 Salı tarihinde HyPnose86 yazmıştı:
--0-1-3-1-0-1----I-----0-1-0------0-----I--------0-----------------------------------I
-----------------3--I-3-----------3------1-I--1-3------3-1-3------3-0-0-1-0--------I
---------------------I-----------------------I---------------------0----------------2--0-I



--0-1-3-1-0-1------I------0-1-0------0-----I-------0-----------------------I---------------------I
-------------------3--I--3-----------3------1-I-1-3------3-1-3-------3------I-0-1-0--------0-1-I
----------------------I-------------------------I---------------------0----------I----------2---------I



---------------------I------------------------I--------------------I------------------------I------------------I
--1-0-1-0-1-0-1---I---0-1-3-1-0-1-------I-1-0-1-0-1-0-1--I--0-1-3-1-0-1--------I-1-0-1-0-1-0-1-I
----------------------I-------------------0---I-------------------I--------------------0-0-I------------------I





----------------------I--------------------I-------------------I
--0-1-3-1-0-1------I-1-0-1-0-1-0-1---I--0-1-3-1-0-1---I
-------------------0--I--------------------I-------------------I


EMEGE SAYGI AMA BNCE BOLE DAHA DORU


saol kardeş ben de bunu arıyodum :D
emeğe saygı çok güzel olmuş


Bu Yoruma Cevap Ver
2utku2 | 05 Ocak 2011 Çarşamba 21:26
e 013101
b 101010013101 3
c 0


Bu Yoruma Cevap Ver
guitardevrim | 27 Aralık 2010 Pazartesi 15:22
guzel yapmıssın :D


Bu Yoruma Cevap Ver
Alucard53 | 30 Kasım 2010 Salı 14:54
yaa yarım bu üstelik düzenlenende doğru deil :S


Bu Yoruma Cevap Ver
Elektro Guitar | 28 Ekim 2010 Perşembe 20:16
16 Haziran 2009 Salı tarihinde HyPnose86 yazmıştı:
--0-1-3-1-0-1----I-----0-1-0------0-----I--------0-----------------------------------I
-----------------3--I-3-----------3------1-I--1-3------3-1-3------3-0-0-1-0--------I
---------------------I-----------------------I---------------------0----------------2--0-I



--0-1-3-1-0-1------I------0-1-0------0-----I-------0-----------------------I---------------------I
-------------------3--I--3-----------3------1-I-1-3------3-1-3-------3------I-0-1-0--------0-1-I
----------------------I-------------------------I---------------------0----------I----------2---------I



---------------------I------------------------I--------------------I------------------------I------------------I
--1-0-1-0-1-0-1---I---0-1-3-1-0-1-------I-1-0-1-0-1-0-1--I--0-1-3-1-0-1--------I-1-0-1-0-1-0-1-I
----------------------I-------------------0---I-------------------I--------------------0-0-I------------------I





----------------------I--------------------I-------------------I
--0-1-3-1-0-1------I-1-0-1-0-1-0-1---I--0-1-3-1-0-1---I
-------------------0--I--------------------I-------------------I


EMEGE SAYGI AMA BNCE BOLE DAHA DORU


saol kardeş ben de bunu arıyodum :D


Bu Yoruma Cevap Ver
John :] | 15 Ağustos 2010 Pazar 17:06
politeboy güsel olmuşş


Bu Yoruma Cevap Ver
CeYHN | 22 Nisan 2010 Perşembe 22:08
Şarkıya uygun olarak düzenlenmiştir...

Bu günüm yarın olsa....................
E:7-8-10-8-7-8-5-5-7-8-7-5-7-3-3-5-7-5-3-5-0-5-3-2-3-2-0 A:3
Geriye ne kalırdı yaşananları..................
E:7-8-10-8-7-8-5-5-7-8-7-5-7-3-3-5-7-5-3-5-0-5-3-3-2-0-2-3

Nakarat:
Beni al kucağına elini......
E:3-2-3-2-3-2-3-2-3-5-3-2-3-0-2-3-2-3-2-3-2-3-2-3-5-3-2-0
E:3-2-3-2-3-2-3-2-3-5-3-2-3-0-2-3-2-3-2-3-2-3-2-3-5-3-2-3

Son bölüm:
E: 15-15-14-12-10-15-15-14-12-10-15-15-14-12-10-15-15-14-12-15

Arkadaşlar kontrol için şarkıyı açıp beraberinde çalabilirsiniz test edilmiştir..onaylanmıştır...


Bu Yoruma Cevap Ver
politeboy | 14 Mart 2010 Pazar 13:20
biraz eksigi var ve ince telde calınması degerekn bır sarkı


Bu Yoruma Cevap Ver
koray korayy | 12 Şubat 2010 Cuma 14:49
21 Eylül 2009 Pazartesi tarihinde qitarist_mert yazmıştı:
e--------------------------------------------------------------------
b--------------------------------------------------------------------
g---------------------------------------------------
d-----------------------------------------------
a----------------------------------------3-------------------------
e---2-1-2-1-2-1-2--1-2-4-2-1----------0-----1-2-1-2-1-2-1-2-1-2-4-2-1-2-------------------------

arkadaşlar bunu deneyin bence daha doğru
kulaktan mi :S


Bu Yoruma Cevap Ver
kubr@m | 31 Ocak 2010 Pazar 18:16
10 Mayıs 2009 Pazar tarihinde serhat_fb yazmıştı:
böyle kıytırık şeyler çalıp gitaristim diyebilen var mı?
evet sen:):):):)


Bu Yoruma Cevap Ver
rock_angel* | 27 Eylül 2009 Pazar 20:31
e--------------------------------------------------------------------
b--------------------------------------------------------------------
g---------------------------------------------------
d-----------------------------------------------
a----------------------------------------3-------------------------
e---2-1-2-1-2-1-2--1-2-4-2-1----------0-----1-2-1-2-1-2-1-2-1-2-4-2-1-2-------------------------

arkadaşlar bunu deneyin bence daha doğru


Bu Yoruma Cevap Ver
qitarist_mert | 21 Eylül 2009 Pazartesi 14:53
çok basit bi şarkı bunu tab şeklinde yazmak bile saçmalık biraz kulaktan çıkartmayı deneyin


Bu Yoruma Cevap Ver
bob23 | 19 Eylül 2009 Cumartesi 18:11
B telindeki 3 bence de olmayacak . Orda 0 vurunca daha ritmik ve orjinaline yakın cıkıyor .


Bu Yoruma Cevap Ver
DieselTRoniC | 18 Ağustos 2009 Salı 15:55
--0-1-3-1-0-1----I-----0-1-0------0-----I--------0-----------------------------------I
-----------------3--I-3-----------3------1-I--1-3------3-1-3------3-0-0-1-0--------I
---------------------I-----------------------I---------------------0----------------2--0-I



--0-1-3-1-0-1------I------0-1-0------0-----I-------0-----------------------I---------------------I
-------------------3--I--3-----------3------1-I-1-3------3-1-3-------3------I-0-1-0--------0-1-I
----------------------I-------------------------I---------------------0----------I----------2---------I



---------------------I------------------------I--------------------I------------------------I------------------I
--1-0-1-0-1-0-1---I---0-1-3-1-0-1-------I-1-0-1-0-1-0-1--I--0-1-3-1-0-1--------I-1-0-1-0-1-0-1-I
----------------------I-------------------0---I-------------------I--------------------0-0-I------------------I





----------------------I--------------------I-------------------I
--0-1-3-1-0-1------I-1-0-1-0-1-0-1---I--0-1-3-1-0-1---I
-------------------0--I--------------------I-------------------I


EMEGE SAYGI AMA BNCE BOLE DAHA DORU




Bu Yoruma Cevap Ver
HyPnose86 | 16 Haziran 2009 Salı 18:12
böyle kıytırık şeyler çalıp gitaristim diyebilen var mı?


Bu Yoruma Cevap Ver
serhat_fb | 10 Mayıs 2009 Pazar 19:07
çok güzel dogruda bu kadarınıda kulaktan duyup çalmak gerek hani ....


Bu Yoruma Cevap Ver
emrekonuk | 06 Nisan 2009 Pazartesi 15:56
çok basit....


Bu Yoruma Cevap Ver
ali_ali | 22 Mart 2009 Pazar 14:50
güzel olmuş


Bu Yoruma Cevap Ver
Jungle God | 16 Mart 2009 Pazartesi 19:13
fena değil ama kalanı nerde


Bu Yoruma Cevap Ver
x hunter | 06 Mart 2009 Cuma 15:04
güzel olmuş "/fck/editor/images/smiley/msn/teeth_smile.gif" alt=""/>"/fck/editor/images/smiley/msn/wink_smile.gif" alt=""/>


Bu Yoruma Cevap Ver
okanyavuzokan | 16 Ocak 2009 Cuma 23:21
E:7-8-10-8-7-8-5-5-7-8-7-5-7-3-3-5-7-5-3-5-0-2-3-5-3-2-3
BU DA TABIN İKİNCİ KISMI İYİ ÇALMALAR BİLDİĞİNİZ ŞARKILARIN RİTİMLERİNİ BANA YOLLARMISINIZ ÖZELLİKLE PİNHANİNKİLERİ


Bu Yoruma Cevap Ver
gece sesleri | 20 Ekim 2008 Pazartesi 01:30
çok boktan bence


Bu Yoruma Cevap Ver
uuutkuuu | 27 Ağustos 2008 Çarşamba 20:06
devamı nerde bunun ya


Bu Yoruma Cevap Ver
blackkkkk | 11 Ağustos 2008 Pazartesi 17:16
kardeş bence orda 2. telde 3 yerine 1. telde 0  daha iyi gibi ya ama Emeye saygı


Bu Yoruma Cevap Ver
leke | 22 Temmuz 2008 Salı 22:39
herhkesin güzel dediğini göre demek ki güzel ama ben anlamıyorum bi zahmet sözleride yaz ki bende güzel olmuş diyeyim. doğrusu ben acemiyim ondan anlamadım......


Bu Yoruma Cevap Ver
Emrullahcelik | 31 Ocak 2008 Perşembe 20:30
fena deıl:P


Bu Yoruma Cevap Ver
cemsk | 14 Aralık 2007 Cuma 20:18
ellerine saglik kolay ve gusel


Bu Yoruma Cevap Ver
TURKMAC | 12 Aralık 2007 Çarşamba 17:25
kolaymış


Bu Yoruma Cevap Ver
thespawn | 04 Aralık 2007 Salı 16:05
bence orjinalindeki ses gibi çıkmıyor ama yinede güzel


Bu Yoruma Cevap Ver
m@mi | 02 Aralık 2007 Pazar 19:34
harbiden süper


Bu Yoruma Cevap Ver
mrtfx | 11 Eylül 2007 Salı 22:21
evet kardeşim süper olmuş ellerine sağlık :)


Bu Yoruma Cevap Ver
gitarjıı | 05 Ağustos 2007 Pazar 21:53
3 dogru arkadaslar


Bu Yoruma Cevap Ver
toygunne | 14 Temmuz 2007 Cumartesi 20:44
teşekkürler


Bu Yoruma Cevap Ver
NeGNeM | 09 Temmuz 2007 Pazartesi 14:34
güzel olmus sevdim sadece evet b deki 3 deil 0 olcak arkdslara katılıyorum =}


Bu Yoruma Cevap Ver
eurotrip | 09 Temmuz 2007 Pazartesi 12:00
guzel olmus emege saygı :)))


Bu Yoruma Cevap Ver
patlican | 07 Temmuz 2007 Cumartesi 00:29
bravo bravooo


Bu Yoruma Cevap Ver
avril-elif | 06 Temmuz 2007 Cuma 18:18
b telinde 3 olmayacak orda e teli 0 olmalı şarkıyı dinleyip öyle yapın farkı anlayacaksınız


Bu Yoruma Cevap Ver
roland | 06 Temmuz 2007 Cuma 17:57
EYV GÜZEL OLMUŞ ;)


Bu Yoruma Cevap Ver
led zeppelin | 04 Temmuz 2007 Çarşamba 20:58
gayet güsel olmuş tebriklerrr...


Bu Yoruma Cevap Ver
gtrm | 30 Haziran 2007 Cumartesi 11:14
superrr


Bu Yoruma Cevap Ver
pentagram_b | 29 Haziran 2007 Cuma 21:46
çoo,k gsl olmuş


Bu Yoruma Cevap Ver
amylee07 | 26 Haziran 2007 Salı 13:54
güzel good:)

thank you


Bu Yoruma Cevap Ver
12345678923 | 26 Haziran 2007 Salı 13:48
b tlindeki 3 doğru bende öyle çıkartmıştım


Bu Yoruma Cevap Ver
sharpmarker | 14 Haziran 2007 Perşembe 12:57
b telindeki 3 deil 0 olucak galiba


Bu Yoruma Cevap Ver
fenriz | 09 Haziran 2007 Cumartesi 23:22
süpersiniz yaa ama daha çok tab istiyorum


Bu Yoruma Cevap Ver
ekin&ilayda | 09 Haziran 2007 Cumartesi 15:06
züpper omuş bravoo;);)


Bu Yoruma Cevap Ver
trafo23 | 09 Mart 2007 Cuma 01:48
çok güzel fakat devamı nerede acaba? :P


Bu Yoruma Cevap Ver
tugrulduman | 17 Şubat 2007 Cumartesi 17:39
süpeerr


Bu Yoruma Cevap Ver
umulker | 10 Kasım 2006 Cuma 19:26


Siz de Görüş Bildirin

Yorum yazma alanı Akor Merkezi üyelerine özel bir bölümdür. (Giriş Yap / Üye Ol / Şifremi Hatırlat)


PAYLAŞ

Reklam



Anket
ejje21 soruyor:
Duman Şarkılarının Ne Kadarını Ezbere Biliyorsunuz ?












Sonuçlar | Sonuçlar & Yorumlar
Yeni Anket | Anketler




Reklam


Radyo Dinle
AkorMerkezi.com © 2014
İletişim - Gizlilik Politikası - Kullanım Koşulları - Kurallar - Son Yorumlar - Rastgele

GitarAkor.com kolonisidir. Derleme 0,09 saniye.