Akor Tab Söz Çeviri Anasayfası
Akor|Tab|Söz|Nota Arşivi
Gitar Akorları | Tab,Söz ve Nota Anasayfası | En Yeni Şarkılar | En Popüler Şarkılar | Akor Cetveli

Bilgiler
 
Seslendiren ve Şarkı: Pinhani - Beni Al
Biçim: TAB - HİÇBİRİ
Tarih: 06 Aralık 2009 Pazar
Gönderen: RyhneyS
Toplam Okuyan: 31.420 kişi
Bu Ay Okuyan: 625 kişi
Bu Hafta Okuyan: 152 kişi
 
Beğendiniz mi? Beni Al Tab sayfasını Şimdi paylaşın:

Pinhani - Beni Al - Tab

  (versiyon 7)
Puanlama:
 (57 kişi)

Beni Al şarkısının diğer versiyonlarına bakın >>

Metin boyutu: ( + Büyült ) ( - Küçült)   
Giriş
e|--------------|--------------|--------------|------------------|
b|-1-0-1-0-1-0-1|-0-1-3-1-0-1--|-1-0-1-0-1-0-1|-0-1-3-1-0-1------|
g|--------------|-------------0|--------------|-------------0-2-4|
d|--------------|--------------|--------------|------------------|
a|--------------|--------------|--------------|------------------|
E|--------------|--------------|--------------|------------------|

e|--------------|--------------|--------------|------------|
b|-1-0-1-0-1-0-1|-0-1-3-1-0-1--|-1-0-1-0-1-0-1|-0-1-3-1-0-1|
g|--------------|-------------0|--------------|------------|
d|--------------|--------------|--------------|------------|
a|--------------|--------------|--------------|------------|
E|--------------|--------------|--------------|------------|




e|-0-1-3-1-0-1------|---0-1-0---0---------|-----0---------------------------------|
b|-------------3----|-3-------3---1-------|-1-3---3-1-3---3-0-0-1-0---------------|
g|------------------|---------------------|-------------2-----------2-0-----------|
d|------------------|---------------------|---------------------------------------|
a|------------------|---------------------|---------------------------------------|
E|------------------|---------------------|---------------------------------------|
  bugünüm yarın olsa ya da hep yeni baştan/yaşamak ne güzel olur hiç başlamamışsan

e|-0-1-3-1-0-1-----|---0-1-0---0-----|-----0---------------|---------------|
b|-------------3---|-3-------3---1---|-1-3---3-1-3---3-----|-0-1-0---0-1---|
g|-----------------|-----------------|-------------2-------|-------2-------|
d|-----------------|-----------------|---------------------|---------------|
a|-----------------|-----------------|---------------------|---------------|
E|-----------------|-----------------|---------------------|---------------|
  geriye ne kalırdı yaşananları atsan/seni bir daha yaşamak isterim aslında

e|----------------|----------------|-----------------|-------------------|
b|-1-0-1-0-1-0-1--|-0-1-3-1-0-1----|-1-0-1-0-1-0-1---|-0-1-3-1-0-1-------|
g|----------------|-------------0--|-----------------|-------------------|
d|----------------|----------------|-----------------|-------------------|
a|----------------|----------------|-----------------|-------------------|
E|----------------|----------------|-----------------|-------------------|
  beni al kucağına elini belime sar/beni almadığın an üşürüm sabaha kadar

e|----------------|----------------|-----------------|--------------|
b|-1-0-1-0-1-0-1--|-0-1-3-1-0-1----|-1-0-1-0-1-0-1---|-0-1-3-1-0-1--|
g|----------------|-------------0--|-----------------|--------------|
d|----------------|----------------|-----------------|--------------|
a|----------------|----------------|-----------------|--------------|
E|----------------|----------------|-----------------|--------------|
  beni al kucağına elini belime sar/beni almadığın an ölürüm beni al

Ara Solo
e|--------------|--------------|--------------|------------------|
b|-1-0-1-0-1-0-1|-0-1-3-1-0-1--|-1-0-1-0-1-0-1|-0-1-3-1-0-1------|
g|--------------|-------------0|--------------|-------------0-2-4|
d|--------------|--------------|--------------|------------------|
a|--------------|--------------|--------------|------------------|
E|--------------|--------------|--------------|------------------|

e|--------------|--------------|--------------|------------|
b|-1-0-1-0-1-0-1|-0-1-3-1-0-1--|-1-0-1-0-1-0-1|-0-1-3-1-0-1|
g|--------------|-------------0|--------------|------------|
d|--------------|--------------|--------------|------------|
a|--------------|--------------|--------------|------------|
E|--------------|--------------|--------------|------------|

e|-0-1-3-1-0-1------|---0-1-0---0------|-----0----------------------------|
b|-------------3----|-3-------3---1----|-1-3---3-1-3---3-0-0-1-0----------|
g|------------------|------------------|-------------2-----------2-0------|
d|------------------|------------------|----------------------------------|
a|------------------|------------------|----------------------------------|
E|------------------|------------------|----------------------------------|
  biraz önce uyurken seni koynuma aldım/dudağından öperken uykudan uyandım

e|-0-1-3-1-0-1------|---0-1-0---0--------|-----0---------------|---------------|
b|-------------3----|-3-------3---1------|-1-3---3-1-3---3-----|-0-1-0---0-1---|
g|------------------|--------------------|-------------2-------|-------2-------|
d|------------------|--------------------|---------------------|---------------|
a|------------------|--------------------|---------------------|---------------|
E|------------------|--------------------|---------------------|---------------|
  sana böyle uzakken seni bir daha sevdim/yanına gelebilsem bir daha dönmezdim

e|----------------|----------------|-----------------|-------------------|
b|-1-0-1-0-1-0-1--|-0-1-3-1-0-1----|-1-0-1-0-1-0-1---|-0-1-3-1-0-1-------|
g|----------------|-------------0--|-----------------|-------------------|
d|----------------|----------------|-----------------|-------------------|
a|----------------|----------------|-----------------|-------------------|
E|----------------|----------------|-----------------|-------------------|
  beni al kucağına elini belime sar/beni almadığın an üşürüm sabaha kadar

e|----------------|----------------|-----------------|--------------|
b|-1-0-1-0-1-0-1--|-0-1-3-1-0-1----|-1-0-1-0-1-0-1---|-0-1-3-1-0-1--|
g|----------------|-------------0--|-----------------|--------------|
d|----------------|----------------|-----------------|--------------|
a|----------------|----------------|-----------------|--------------|
E|----------------|----------------|-----------------|--------------|
  beni al kucağına elini belime sar/beni almadığın an ölürüm beni al

e|-----------------|-------------------|
b|-1-0-1-0-1-0-1---|-0-1-3-1-0-1-------|
g|-----------------|-------------------|
d|-----------------|-------------------|
a|-----------------|-------------------|
E|-----------------|-------------------|
  beni almadığın an üşürüm sabaha kadar


Beni Al Tab, AkorMerkezi.com'da yayınlanmıştır.
http://www.akormerkezi.com


İçerik Kısa Linki:


Beğendiniz mi? Beni Al Tab sayfasını Şimdi paylaşın:


Beni Al şarkısı için amatör kayıtları dinleyin: (Siz de Ekleyin)

Beni Al Tab için Komoçotoko'dan Gelenler
Aramalar: pihani beni al tab, beni al kucağina gitar notalari, pinhani tab nasıl çalınır, beni al akor, beni al solo akorları, beni al gitar tabı, Beni al kucağına solo gitar, beni al sözleri, beni al tablar, beni al tab verison 7
Pinhani - Beni Al için Kullanıcı Görüşleri

18 Şubat 2012 Cumartesi tarihinde sessizz1 yazmıştı:
cok güzel çalışma. keşke bütün tab lar boyle tam anlaşılır yazılsa. tebrikler kardeş
katılıyorum cok güzel ve anlaşılır olmuş.Bşaka tablarda bekliyorum.


Bu Yoruma Cevap Ver
ospiri | 08 Aralık 2013 Pazar 16:33
tebrikler çok güzel olmuş işte emek budur :)


Bu Yoruma Cevap Ver
Dre4m | 31 Ekim 2012 Çarşamba 10:10
cok güzel çalışma. keşke bütün tab lar boyle tam anlaşılır yazılsa. tebrikler kardeş


Bu Yoruma Cevap Ver
sessizz1 | 18 Şubat 2012 Cumartesi 23:44
12 Mayıs 2010 Çarşamba tarihinde tolgakafadar yazmıştı:
e|-----------------|-------------------|
b|-1-0-1-0-1-0-1---|-0-1-3-1-0-1-------|
g|-----------------|-------------------|
d|-----------------|-------------------|
a|-----------------|-------------------|
E|-----------------|-------------------|
beni almadığın an üşürüm sabaha kadar


sonu üşürüm sabaha kadar diye bitmiyor ama beni al diye bitiyor çaldığınızda
Hayır. Sonunda 2 kere tekrarlıyor. " Beni al kucağına üşürüm sabaha kadar. "


Bu Yoruma Cevap Ver
KnightOnline | 14 Kasım 2011 Pazartesi 20:45
işte bu arkadaşım, kusursuz, çok teşekkürler ;)


Bu Yoruma Cevap Ver
hayatı-yakala | 29 Ekim 2011 Cumartesi 15:54
bence güel olmuş eline sağlık :))


Bu Yoruma Cevap Ver
ByNero | 26 Ekim 2011 Çarşamba 12:49
mükkemmel süper halkulade: D D:D :) XD


Bu Yoruma Cevap Ver
goztepele | 05 Nisan 2011 Salı 16:46
süpersin on numara


Bu Yoruma Cevap Ver
asdeta | 23 Mart 2011 Çarşamba 11:53
e|----------------|----------------|-----------------|--------------|
b|-1-0-1-0-1-0-1--|-0-1-3-1-0-1----|-1-0-1-0-1-0-1---|-0-1-3-1-0-1--|


YERİNE BUNU KULLANABİLİRSİNİZ


3-2-3---2-3-2-3 || 2-3--5-3-2-3------
---------------------------------------3----


3-2-3---2-3-2-3 || 2-3--5-3-2-3------


Bu Yoruma Cevap Ver
emtrem | 06 Eylül 2010 Pazartesi 18:59
eline emeğine sağlık güzel olmuş:)


Bu Yoruma Cevap Ver
m_tekin | 25 Haziran 2010 Cuma 13:49
e|-----------------|-------------------|
b|-1-0-1-0-1-0-1---|-0-1-3-1-0-1-------|
g|-----------------|-------------------|
d|-----------------|-------------------|
a|-----------------|-------------------|
E|-----------------|-------------------|
beni almadığın an üşürüm sabaha kadar


sonu üşürüm sabaha kadar diye bitmiyor ama beni al diye bitiyor çaldığınızda


Bu Yoruma Cevap Ver
tolgakafadar | 12 Mayıs 2010 Çarşamba 09:36
bravo valla bu sitedeki en güzel beni al tabı süper çalınıyor


Bu Yoruma Cevap Ver
gabico | 25 Ocak 2010 Pazartesi 13:55
gerçekten elinize sağlık


Bu Yoruma Cevap Ver
weROCK | 16 Ocak 2010 Cumartesi 15:17
ne demek ben teşekkür ederim yorum yaptıgın için


Bu Yoruma Cevap Ver
RyhneyS | 31 Aralık 2009 Perşembe 11:34
Beni alı mi telinden 3-2-3-2-3-2-3 || 2-3--5-3-2 diye görmüştüm bi yerde.Bu gerçekten çok güel olmuş.Hem basit hem güzel.teşekkür ederim.


Bu Yoruma Cevap Ver
ner10line | 31 Aralık 2009 Perşembe 11:20
eline sağlık çok güzel olmuş


Bu Yoruma Cevap Ver
Majoris | 23 Aralık 2009 Çarşamba 21:28
yanlışlar olabilir gitarda yeniyim ve ilk tab ım eger bi yalnış yada bi hatam varsa iyi yada kötü her türlü eleştiriye açığım


Bu Yoruma Cevap Ver
RyhneyS | 06 Aralık 2009 Pazar 20:56


Siz de Görüş Bildirin

Yorum yazma alanı Akor Merkezi üyelerine özel bir bölümdür. (Giriş Yap / Üye Ol / Şifremi Hatırlat)


PAYLAŞ

Reklam



Anket
reberow soruyor:
Sizce hangi elektro gitar almalıyım neden ? ayrıca başka önerileride yoruma yazarsanız sevinirim.











Sonuçlar | Sonuçlar & Yorumlar
Yeni Anket | Anketler






Radyo Dinle
AkorMerkezi.com © 2014
İletişim - Gizlilik Politikası - Kullanım Koşulları - Kurallar - Son Yorumlar - Rastgele

GitarAkor.com kolonisidir. Derleme 0,08 saniye.