Akor Tab Söz Çeviri Anasayfası
Akor|Tab|Söz|Nota Arşivi
Gitar Akorları | Tab,Söz ve Nota Anasayfası | En Yeni Şarkılar | En Popüler Şarkılar | Akor Cetveli

Bilgiler
 
Seslendiren ve Şarkı: Şebnem Ferah - Bu Aşk Fazla Sana
Biçim: TAB -
Tarih: 08 Mayıs 2006 Pazartesi
Gönderen: Unicorn90
Toplam Okuyan: 11.059 kişi
Bu Ay Okuyan: 197 kişi
Bu Hafta Okuyan: 20 kişi
 
Beğendiniz mi? Bu Aşk Fazla Sana Tab sayfasını Şimdi paylaşın:
DİKKAT!
Bu Aşk Fazla Sana Tab sayfasını düzgün görüntüleyemiyor olabilirsiniz.
Eğer böyle bir sıkıntınız varsa tıklayın.

Şebnem Ferah - Bu Aşk Fazla Sana - Tab

  (versiyon 4)
Puanlama:
 (10 kişi)

Bu Aşk Fazla Sana şarkısının diğer versiyonlarına bakın >>

Metin boyutu: ( + Büyült ) ( - Küçült)   

BU AŞK FAZLA SANA

Fig 1

Gitar 1

e-------------10--9------------/7-----------/7-------------------|
B--7--7/8--7----------10---7---------10-----------10------7------|
G--------------------------------------7------------9------------|
D----------------------------------------------------------------|
A----------------------------------------------------------------|
E----------------------------------------------------------------|

e--------------10--9---------/7-------------------7--9--10--7----|
B--7--7/8--7---------10--7------10--------7--10------------------|
G-----------------------------------7--9-------------------------|
D----------------------------------------------------------------|
A----------------------------------------------------------------|
E----------------------------------------------------------------|


Gitar 2

Bm              G
Denize açıldım sevmeye sevilmeye
Bm              G
Anladım sevmek gibisi yok   

Gitar 1
e---------------|
B---------------|
G---------------|
D----4b5b4------|
A---------------|
E---------------|

Gitar 2

Bm                G
Yağmura soyundum yavaş yavaş yağar diye
Bm                 G
Damlalarda yüzmek gibisi yok

A    F#          Bm
Yokluğun varlığın bir
A     F#         Bm
Dünüm yok yarınım sır
            G                 Bm       
Nasıl inanırım sana, bu yürek ağır bana
            G                        Bm           x2
Sevgin öyle uzaklarda, nefes alsanda yanımda
Bm           G
Bu aşk fazla sana

Gitar 3

e--------------------|
B--------------------|
G---6~4--6-4---------|
D-------------5-7----|
A--------------------|
E--------------------|

Figür 1 bir kez daha yapıldıktan sonra solo kısmı

Solo

Gitar 1

Fig 2
e-------------------------------------------------------------|
B-------------------------------------------------------------|
G-9---11---9--11--11/12--11--9-9--11---9-11-11-11/12-11-9-11--|
D-------------------------------------------------------------|
A-------------------------------------------------------------|
E-------------------------------------------------------------|    

Fig 3

e-------------------------------------------------------------|
B-------------------------------------------------------------|
G-9-----------------------------------------------------------|
D----12---11--12---14-12-11-12-12/14--12-14--14/16--14--16----|
A-------------------------------------------------------------|
E-------------------------------------------------------------|

Fig 4

e-------------------------------------------------------------|
B-------------------------------------------------------------|
G----------16--14----------14--16--16/18----------------------|
D-----------------17--17--------------------------------------|
A-------------------------------------------------------------|
E-------------------------------------------------------------| 

Fig 4 yapılırken Gitar 3 Gitar 1'le beraber şunu yapıyor:

Gitar 3

e-------------------------------------------------------------|
B---12--10-----------10--12--12/14----------------------------|
G------------12--12-------------------------------------------|
D-------------------------------------------------------------|
A-------------------------------------------------------------|
E-------------------------------------------------------------| 

A       F#        Bm
Yokluğun varlığın bir


Gitar 3

e-------------------------------------------------------------|
B----12-14-15-----14-15--12-14-15--14-15-14-----12-14---------|
G--------------14----------------------------14---------------|
D-------------------------------------------------------------|
A-------------------------------------------------------------|
E-------------------------------------------------------------|

A       F#        Bm
Dünüm yok yarınım sır

Bu kısımdan sonra da bi Gitar 3 var ama klasikten pek anlamıyorum zaten, bi de gitarın ses sonlara doğru pek d
uyulmuyo çıkartmadım.

             G                      Bm
Nasıl inanırım sana, bu yürek ağır bana
             G                              Bm
Sevgin öyle uzaklarda nefes alsan da, yanında
             G                Bm
Nasıl inanırım sana, bu yürek ağır bana
             G                              Bm
Sevgin öyle uzaklarda nefes alsan da, yanımda
                G  Am                 Bm
Bu aşk fazla sana, Bu aşk fazla sana

(Sondaki Am'yi 5. perdeden yapın.)
     
Bu Aşk Fazla Sana Tab, AkorMerkezi.com'da yayınlanmıştır.
http://www.akormerkezi.com


İçerik Kısa Linki:


Beğendiniz mi? Bu Aşk Fazla Sana Tab sayfasını Şimdi paylaşın:


Bu Aşk Fazla Sana Tab için Komoçotoko'dan Gelenler
Aramalar: şebnem, klasik gitarla şebnem ferah nasıl çalınır, sebnem ferah hoscakal nasil calinir, şebnem ferah tab, Şebnem Ferah - Bu Aşk Fazla Sana - Tab, ebnem ferah bu ak fazla sana, bu ak fazla sana, bu aşk fazla sana nasıl çalınır gitarla, bu aşk fazla sana gitarda nasıl çalınır, aşk tab
Şebnem Ferah - Bu Aşk Fazla Sana için Kullanıcı Görüşleri

Çok güzel olmuş kadın albümündekinin aynısı.

Ben konser albümüne eşlik ederek çalmaya çalıştım. Uymadı. Şebo konserdekini Am den söylüyo. Sanırım sonundaki dik çıkışları yapabilmek için böyle yapmış. Ben de az daha bu yanlış akor sanıcaktım. Konserdeki Am den kadın albümündeki ise Bm den. Artık siz nerden çalmak isterseniz size kalmış..Transpoze edilemeyecek bişey değil:))


Bu Yoruma Cevap Ver
Crazybird | 21 Kasım 2008 Cuma 22:43
2 gitarla da çalınır hatta bi gitar bi klavyeyle de gayet güzel olur ama ben ayrı ayrı yazmak istedim hepsini, isteyen gitar 3''ün yaptığını gitar 2 yle beraber yapsın


Bu Yoruma Cevap Ver
Unicorn90 | 17 Haziran 2008 Salı 13:38

gercekten iyi.yalnız bu şarkıda 2 gitar var arkaadasım 3.gitar  nerden cıktı.biz bunu konserde tek gitarlada çaldık.

3.gitar fazla.



Bu Yoruma Cevap Ver
venedixli | 17 Haziran 2008 Salı 11:20

tebrkler dostum süpersin daha iyisi olamazdı ellerine sağlık



Bu Yoruma Cevap Ver
sindaylight | 03 Haziran 2008 Salı 18:15
evet bu olmuş dostum ;) yanlız g ler biraz kalın kacıyor baska bi sey mi denesek naapsak :)


Bu Yoruma Cevap Ver
erkanbuyuk | 16 Mart 2008 Pazar 23:26
sen kulaktan çal o zaman kardeş ne diyeyim, ben bunu tam anlamıyla, bi programda veya herhangi bi konserde çalcak olanlar için yazdım kolaylık olsun diye.Tab kısmıyla ilgilenmeyenler de akorlarına bakar zaten


Bu Yoruma Cevap Ver
Unicorn90 | 14 Mart 2008 Cuma 16:59
süper olmuş herşeyini yazmışsın tebrikler...


Bu Yoruma Cevap Ver
!V!e!V!o | 05 Mart 2008 Çarşamba 20:53
biraz daha anlaşılır olabilir bence ve arkadaşın dediği gibi üç gitarla çalınan şarkının tabını da buraya yazmak saçma kişi zaten müzik kulağına sahipse tab çok öenmli değil dinlerken bile çalınacak bi şarkı


Bu Yoruma Cevap Ver
metalslug | 01 Mart 2008 Cumartesi 14:11
Yaa 3 gitarla çalınıyor madem aynı anda tek gitardan nasıl ayarlıycaz??? mesela orada 1. gitar çalarken 3. gitarda arkadan başka birşey çalıyormuş.. :( yaa zaten acemiyim bide üstüne şebnemi ve şarkılarını çok seviyorum onları öğrenmeye çalışıyorum çok zor geliyor bana şarkıları yaa ? gerçekten zormu ???


Bu Yoruma Cevap Ver
alicandemir | 29 Şubat 2008 Cuma 19:21
bnce de süper


Bu Yoruma Cevap Ver
nothing9_9 | 06 Ocak 2008 Pazar 14:20
teşekkürler...muhteşem olmuş.


Bu Yoruma Cevap Ver
gitarist233 | 22 Aralık 2007 Cumartesi 16:22
süper olmş gerçktn tebrkler saol =)


Bu Yoruma Cevap Ver
Furkhys | 17 Aralık 2007 Pazartesi 14:36
gayet güzel tebrik ederim 10 numara olmuş


Bu Yoruma Cevap Ver
metaliRock | 11 Ekim 2007 Perşembe 10:58
gayet güzel...ellerine sağlık...


Bu Yoruma Cevap Ver
priz-ma | 30 Haziran 2007 Cumartesi 23:35
çok güzel olmuş eline sağlık


Bu Yoruma Cevap Ver
the_warrior | 26 Mayıs 2007 Cumartesi 19:45
başka biri daha mükemmel çıkartamazdı eline sağlık


Bu Yoruma Cevap Ver
walker | 20 Şubat 2007 Salı 17:27
gerçekten hoş olmuş :)


Bu Yoruma Cevap Ver
smt | 21 Ocak 2007 Pazar 23:34
bravo süper olmuş.diğerleri saçmalamış.ellerine sağlık


Bu Yoruma Cevap Ver
meriç_06 | 15 Aralık 2006 Cuma 19:08
bu şarkı bm'den çalınır ztn..
akorları düzeltseydiiniz çalardınız..
çok iyi bi çalışma olmuş ama eline sağlık.


Bu Yoruma Cevap Ver
Hennesky | 04 Aralık 2006 Pazartesi 11:36
ya bu akor harika olmuş.. ellerine sağlık.. iki sene önce nerdeydin sen???


Bu Yoruma Cevap Ver
gozdes_ | 10 Kasım 2006 Cuma 21:51
aralarındaki en iyisi bence


Bu Yoruma Cevap Ver
punisher06 | 24 Ekim 2006 Salı 14:30
aralarındaki en iyisi bence


Bu Yoruma Cevap Ver
punisher06 | 24 Ekim 2006 Salı 14:27
akorlar doğru ama tab dan çok emin deilm :s


Bu Yoruma Cevap Ver
grumbling | 13 Eylül 2006 Çarşamba 13:17
güzele benziyo deniycem


Bu Yoruma Cevap Ver
cooperfo81 | 07 Eylül 2006 Perşembe 18:44
abicim gayet ii tebrikler....


Bu Yoruma Cevap Ver
üye-silinmiş | 05 Eylül 2006 Salı 18:44
yanlış dıyenler neresı yanlıs pardon ????? dogru olmus ıste azıcık gıtar calmayı bılen anlar....


Bu Yoruma Cevap Ver
wagner | 04 Eylül 2006 Pazartesi 22:30
tab için cok tesekkur fakat akor icin aynı seyi soyleyemicem bence yanlıs cunku.yinede eline sağlık


Bu Yoruma Cevap Ver
hasan15 | 01 Ağustos 2006 Salı 11:02
Bu arada en baştaki tabda 7 ve 9'lar biraz sola doğru kaymış, özür o yüzden


Bu Yoruma Cevap Ver
Unicorn90 | 19 Temmuz 2006 Çarşamba 00:45
Bu arada en baştaki tabda 7 ve 9'lar biraz sola doğru kaymış, özür o yüzden


Bu Yoruma Cevap Ver
Unicorn90 | 19 Temmuz 2006 Çarşamba 00:44
akorlar doğru ama..
tablarda yanlışlık var


Bu Yoruma Cevap Ver
üye-silinmiş | 17 Temmuz 2006 Pazartesi 19:24
yanlışlık varr


Bu Yoruma Cevap Ver
üye-silinmiş | 17 Temmuz 2006 Pazartesi 19:23
muazzam olmuş tebrikler...
:d


Bu Yoruma Cevap Ver
üye-silinmiş | 05 Temmuz 2006 Çarşamba 12:55
abi emeğine tşk kimse traş yapmasın gayet tatmin edici işte...


Bu Yoruma Cevap Ver
üye-silinmiş | 24 Haziran 2006 Cumartesi 16:53
Süpper yaf denemeden yorum yapmayın.Ellerine sağlık gerçi alıntı gibi duruyo ama hiç önemli diil.Buraya taşıdığın için sağol...


Bu Yoruma Cevap Ver
eessau | 13 Haziran 2006 Salı 00:41
..........


Bu Yoruma Cevap Ver
sdasda | 12 Mayıs 2006 Cuma 18:28
güzel işte yaa daha ne istionuz ki ?? çok bilen buyursun daa iisini kendi yapsın dimi ???


Bu Yoruma Cevap Ver
sdasda | 12 Mayıs 2006 Cuma 18:28
seboist sitesinde akorlar da böle akorlar o yuzden dogru olmalı çunku ozan tügen kontrol etmiş


Bu Yoruma Cevap Ver
eldrwn | 10 Mayıs 2006 Çarşamba 19:21
gayet doğru ama akorlar


Bu Yoruma Cevap Ver
First_aid | 10 Mayıs 2006 Çarşamba 19:01
Doğrusunu göster de biz de bilgilenelim


Bu Yoruma Cevap Ver
Unicorn90 | 10 Mayıs 2006 Çarşamba 18:52
yanlış


Bu Yoruma Cevap Ver
tarrega | 10 Mayıs 2006 Çarşamba 18:19
bu doğru mu ??? okulda olduum için deniyemiorm da


Bu Yoruma Cevap Ver
sinemum | 10 Mayıs 2006 Çarşamba 13:52
bu doğru mu ??? okulda olduum için deniyemiorm da


Bu Yoruma Cevap Ver
sinemum | 10 Mayıs 2006 Çarşamba 13:52


Siz de Görüş Bildirin

Yorum yazma alanı Akor Merkezi üyelerine özel bir bölümdür. (Giriş Yap / Üye Ol / Şifremi Hatırlat)


PAYLAŞ

Reklam



Anket
Anasiril soruyor:
Stagg A2006-Cs Elektro Akustik Gitar Nasıl Bir Gitar?









Sonuçlar | Sonuçlar & Yorumlar
Yeni Anket | Anketler




Reklam


Radyo Dinle
AkorMerkezi.com © 2014
İletişim - Gizlilik Politikası - Kullanım Koşulları - Kurallar - Son Yorumlar - Rastgele

GitarAkor.com kolonisidir. Derleme 0,06 saniye.