Akor Tab Söz Çeviri Anasayfası
Akor|Tab|Söz|Nota Arşivi
Gitar Akorları | Tab,Söz ve Nota Anasayfası | En Yeni Şarkılar | En Popüler Şarkılar | Akor Cetveli

Bilgiler
 
Seslendiren ve Şarkı: Sezen Aksu - Vazgeçtim
Biçim: TAB - HİÇBİRİ
Tarih: 21 Nisan 2008 Pazartesi
Gönderen: kahramantaş
Toplam Okuyan: 17.483 kişi
Bu Ay Okuyan: 483 kişi
Bu Hafta Okuyan: 92 kişi
 
Beğendiniz mi? Vazgeçtim Tab sayfasını Şimdi paylaşın:

Sezen Aksu - Vazgeçtim - Tab


Puanlama:
 (6 kişi)

Vazgeçtim şarkısının diğer versiyonlarına bakın >>

Metin boyutu: ( + Büyült ) ( - Küçült)   
Intro :

e:|----------------------------------------------------------|
b:|----------------------------------------------------------|
g:|----------------------------------------------------------|
d:|----------------------------------------------------------|
a:|-0-7-5-7-7h9h11-9h7h9-7h5h7-5h3h5-------------------------|
e:|----------------------------------------------------------|


e:|----------------------------------------------------------|
b:|----------------------------------------------------------|
g:|----------------------------------------------------------|
d:|----------------------------------------------------------|
a:|-0-5-3-5-5h7h9-7h5h7-5h3h5-3-2--2-5-7-5-7h10-8-7-5-3-5-7--|
e:|----------------------------------------------------------|


e:|----------------------------------------------------------|
b:|----------------------------------------------------------|
g:|----------------------------------------------------------|     x 2
d:|----------------------------------------------------------|
a:|-7-7-5-7h9-7-5-3-5-5-3-5h7-5-3-1-3-3-1-3h5-3-1-0-0--------|
e:|----------------------------------------------------------|



Vazgeçtim gözlerinden....
Sessizce kimsesizce....

e:|----------------------------------------------------------|
b:|----------------------------------------------------------|
g:|----------------------------------------------------------|     x 2
d:|----------------------------------------------------------|
a:|-7-9-7-9h10-9-7-5--5-7-5-7h9-7-5-3--3-3-6-5-3-2-----------|
e:|----------------------------------------------------------|

Hiç tanımaz tenim ellerini.....
Ah bu koku, bu ten, bu dokunuş....

e:|----------------------------------------------------------|
b:|----------------------------------------------------------|
g:|----------------------------------------------------------|     x 2
d:|----------------------------------------------------------|
a:|-9-7-9h10-9-7-7-9h12-10-9-7-5-4-5-7-5-4-2-4-2-2-----------|
e:|----------------------------------------------------------|

Yok olmak zamanı zamanı şimdi

e:|----------------------------------------------------------|
b:|----------------------------------------------------------|
g:|----------------------------------------------------------|
d:|----------------------------------------------------------|
a:|-7-5-4-3-2-0----------------------------------------------|
e:|----------------4-----------------------------------------|


Vazgeçtim Tab, AkorMerkezi.com'da yayınlanmıştır.
http://www.akormerkezi.com


İçerik Kısa Linki:


Beğendiniz mi? Vazgeçtim Tab sayfasını Şimdi paylaşın:


Vazgeçtim şarkısı için amatör kayıtları dinleyin: (Siz de Ekleyin)

Vazgeçtim Tab için Komoçotoko'dan Gelenler
Aramalar: vazgeçtim sezen aksu notası, sezen aksu vazgetım tab, rol vazgeçtim gitar tab, vazgectim akor tavb, sezen aksu vazgeçtim gitar introsu, emirkan vazgeçtim akor sezen, vazgeçtım akor gitar akor, vazgeçtim tabv, sezan aksu vazgeçtim gitar, vazgeçtim notasi kanun
Sezen Aksu - Vazgeçtim için Kullanıcı Görüşleri

Arkadaşlar hiçbir internet sitesinde h harfinin ne olduğunu açıklamamışlar..Youtube de ise h harfiinin anlatımı ingilizce..
Ben şöyle açıklayayım
h hammer kelimesinin kısaltılması ve hızlı atmak anlamına geliyor
örneğin 5h7 demek 5.perdeden 7.perdeye hızlı geçmek anlamına geliyor..
Yanlış biliyorsam lütfen düzeltin


Bu Yoruma Cevap Ver
Medicalgitar | 17 Eylül 2012 Pazartesi 00:49
dostum güzel olmus fakat be o h harfini cözemedim yardimci olurmusunuz


Bu Yoruma Cevap Ver
adem190383 | 04 Kasım 2009 Çarşamba 23:38
arkadaşlar bu 7h 8h falan ne oluyor?


Bu Yoruma Cevap Ver
habiloy | 15 Kasım 2008 Cumartesi 20:56
<p>kimse orjınal tonu yazmamış</p>


Bu Yoruma Cevap Ver
nefret87 | 28 Eylül 2008 Pazar 17:29
notayi bize &ouml;greten oldudaaa bizmi calmadik;)


Bu Yoruma Cevap Ver
ideaList_kuzu | 14 Eylül 2008 Pazar 13:34
eline sağlık &ccedil;ok tşkler..


Bu Yoruma Cevap Ver
romantik_kiz | 30 Temmuz 2008 Çarşamba 21:08
arkadaslar nota dan kacmayın..tablar saglıklı degildir..hazırlayan arkadasın eline saglık...ama ezbere degil ne yaptıgınızı bilerek calısın..işin mantıgını kavrayın...mesela bu parcayı 12 sesin her birinden ayrı ayrı calabilirmisiniz...hem notada zamanları,tartımları &ouml;grenirsiniz..eserler de orjinaline en yakın bir sekilde icra edilir...hepinize kolay gelsin..


Bu Yoruma Cevap Ver
alzapua42 | 27 Mayıs 2008 Salı 00:03
goood<br/>
&nbsp;<br/>


Bu Yoruma Cevap Ver
gfbatilla | 25 Mayıs 2008 Pazar 09:24
basit ve g&uuml;zel olmış.


Bu Yoruma Cevap Ver
JeoMusic | 21 Mayıs 2008 Çarşamba 09:59


Siz de Görüş Bildirin

Yorum yazma alanı Akor Merkezi üyelerine özel bir bölümdür. (Giriş Yap / Üye Ol / Şifremi Hatırlat)


PAYLAŞ

Reklam



Anket
bendebirüyeyim soruyor:
Hangisi daha başarılı ?










Sonuçlar | Sonuçlar & Yorumlar
Yeni Anket | Anketler




Reklam


Radyo Dinle
AkorMerkezi.com © 2014
İletişim - Gizlilik Politikası - Kullanım Koşulları - Kurallar - Son Yorumlar - Rastgele

GitarAkor.com kolonisidir. Derleme 0,06 saniye.