Akor Tab Söz Çeviri Anasayfası
Akor|Tab|Söz|Nota Arşivi
Gitar Akorları | Tab,Söz ve Nota Anasayfası | En Yeni Şarkılar | En Popüler Şarkılar | Akor Cetveli

Bilgiler
 
Seslendiren ve Şarkı: The Cranberries - Animal İnstinct
Biçim: Akor, Gitar Akorları -
Tarih: 15 Aralık 2005 Perşembe
Gönderen: brknnrtkn
Toplam Okuyan: 8.099 kişi
Bu Ay Okuyan: 3 kişi
Bu Hafta Okuyan: 3 kişi
 
Beğendiniz mi? Animal İnstinct Akor sayfasını Şimdi paylaşın:

The Cranberries - Animal İnstinct - Akor


Puanlama:
 (11 kişi)


Metin boyutu: ( + Büyült ) ( - Küçült)   
 Em         Am                     C
Suddenly something has happened to me
            D
As I was having my cup of tea
 Em         Am               C
Suddenly I was feeling depressed
        D
I was utterly and totally stressed
 Em    Am                C    D
Do you know you made me cry
 Em    Am                C    D
Do you know you made me die

 Em                       Am
And the thing that gets to me
 C                      D
Is you’ll never really see
 Em                        Am
And the thing that freaks me out
 C                       D
Is I'll always be in doubt
 Em       Am                  C
It is a lovely thing that we have
          D
It is a lovely thing that we
 Em       Am                  C
It is a lovely thing, the animal
           D
The animal instinct


e-------------------------------------------------------------------
B-------------------------------------------------------------------
G---4/5--42--4---5-/-7---5---5-5-----4/5--42--4---5---0---2--2----
D-------------------------------------------------------------------
A-------------------------------------------------------------------
E-------------------------------------------------------------------


Em            Am               C
So take my hands and come with me
D                 Em
We will change reality
Em            Am               C 
So take my hands and we will pray
D                   Em
They won't take you away
Em         Am           C    D/Em
They will never make me cry, no
Em         Am            C/D  
They will never make me die 
Em                       Am
And the thing that gets to me
C                      D
Is you'll never really see
Em                           Am
And the thing that freaks me out
C                     D
Is I'll always be in doubt

Em           Am 
The animal, the animal,
C                      D   
The animal instinct in me
Em               Am 
It's the animal, the animal,
C                      D
The animal instinct in me
Em                Am  
It's the animal, it’s the animal,
C                           D
It's the animal instinct in me 
Em                Am  
It's the animal, it’s the animal,
C                           D
It's the animal instinct in me 


Second solo:
e-------------------------------------------------------------------
B-------------------------------------------------------------------
G---4/5--42--4---5-/-7---5---5-5-----4/5--42--4---5---0---2--2----
D-------------------------------------------------------------------
A-------------------------------------------------------------------
E-------------------------------------------------------------------

e-------------------------------------------------------------------
B-------------------------------------------------------------------
G---0-0-0-2---2-2---4-4-4-2---2-2---4-4-4-2---2-2---0-0-0-2---2-2---
D-------------------------------------------------------------------
A-------------------------------------------------------------------
E-------------------------------------------------------------------

e-------------------------------------------------------------------
B-------------------------------------------------------------------
G---/-4/5--42--4---5-/-7-/-9-9-9--9-9-9-9-9--7--7-7--5-5-5-4--4-4--
D-------------------------------------------------------------------
A-------------------------------------------------------------------
E-------------------------------------------------------------------

e-------------------------------------------------------------------
B-------------------------------------------------------------------
G---0-0-0-2---2-2--0-0-0-2---2-2-/-4-4-4-2---2-2---0-0-0-2---2-2--0-
D-------------------------------------------------------------------
A-------------------------------------------------------------------
E-------------------------------------------------------------------
Animal İnstinct Akor, AkorMerkezi.com'da yayınlanmıştır.
http://www.akormerkezi.com


İçerik Kısa Linki:


Beğendiniz mi? Animal İnstinct Akor sayfasını Şimdi paylaşın:


The Cranberries - Animal İnstinct KULLANILAN AKORLAR (Beta)
Em0 2 2 0 0 03 x 2 0 0 0x 2 5 x x 0
Amx 0 2 2 1 0x 0 7 5 5 5x 3 2 2 1 0
C0 3 2 0 1 00 3 5 5 5 33 3 2 0 1 0
Dx 5 4 2 3 2x 9 7 7 x 22 0 0 2 3 2
A0 0 2 2 2 00 4 x 2 5 05 7 7 6 5 5
C/D3 x 0 0 1 0x 3 0 0 1 0x 3 2 0 3 0
Şarkıda kullanılan akorların farklı şekillerde basılışlarıdır. (Detaylı bilgi)

Animal İnstinct Akor için Komoçotoko'dan Gelenler
Aramalar: animal ınc akorları, the animal instinct gitar notası, animal instinct akormerlkezi, animal instinct solo, anımal 3x, animal+instinct+akor, The Cranberries - Animal Instinct akor, the animal gitar akorları, animal instinct akorları, kunci gitar animal instincts the cran
The Cranberries - Animal İnstinct için Kullanıcı Görüşleri

nakarattan önceki bölümde G, D, C, Am oluyor.. akorlar doğru gibi gitse de burada patlıyor :)


Bu Yoruma Cevap Ver
bascilarkrali | 13 Ağustos 2012 Pazartesi 21:28
bunun ritmi ne


Bu Yoruma Cevap Ver
taylan96 | 01 Ocak 2012 Pazar 15:29
solo gayet güzel. yalnızca C yerine Cadd9 kullanılacak.
Cadd9 x32030


aynen..c olmaz orada..


Bu Yoruma Cevap Ver
junana | 15 Aralık 2011 Perşembe 00:40
solo gayet güzel. yalnızca C yerine Cadd9 kullanılacak.
Cadd9 x32030


Bu Yoruma Cevap Ver
barisaktass | 20 Temmuz 2010 Salı 00:45
çoğu yeri yanlış kesinlikle tam doğru değil !!!


Bu Yoruma Cevap Ver
çok sıkıcı | 28 Kasım 2009 Cumartesi 09:32
tamamen doğru


Bu Yoruma Cevap Ver
melon | 14 Eylül 2009 Pazartesi 20:18
08 Şubat 2007 Perşembe tarihinde mawii_kurbaa yazmıştı:
sololarda hafif bi yanlışlık war bence şöle olursa daha doru oluo...

e----------------------------------------------------------------------------------------------------------------------
B----------------------------------------------------------------------------------------------------------------------
G---4/5--4/5--4---5----7---7---7---5---5---5---5---4/5--4/5--4---5---0---0----0--2---2---2----2-----
D----------------------------------------------------------------------------------------------------------------------
A----------------------------------------------------------------------------------------------------------------------
E---------------------------------------------------------------------------------------------------------------------

geriside aynen yazdıın gibi kardeşim ellerine sağlık ii çalışmalar...

doğru aynen doğru


Bu Yoruma Cevap Ver
kocaman_93 | 20 Mayıs 2009 Çarşamba 17:17
sololarda hafif bi yanlışlık war bence şöle olursa daha doru oluo...

e----------------------------------------------------------------------------------------------------------------------
B----------------------------------------------------------------------------------------------------------------------
G---4/5--4/5--4---5----7---7---7---5---5---5---5---4/5--4/5--4---5---0---0----0--2---2---2----2-----
D----------------------------------------------------------------------------------------------------------------------
A----------------------------------------------------------------------------------------------------------------------
E---------------------------------------------------------------------------------------------------------------------

geriside aynen yazdıın gibi kardeşim ellerine sağlık ii çalışmalar...



Bu Yoruma Cevap Ver
mawii_kurbaa | 08 Şubat 2007 Perşembe 23:06
am yerine am7 c yerine c9 kullanın süper oluyor


Bu Yoruma Cevap Ver
muguet05 | 16 Ocak 2007 Salı 19:34
eline saglık ;-)))


Bu Yoruma Cevap Ver
oscar61 | 20 Temmuz 2006 Perşembe 01:09
bence sadece solo biraz garip kalmış akorlar tam bence


Bu Yoruma Cevap Ver
üye-silinmiş | 18 Mayıs 2006 Perşembe 18:20
arkadaslar ben AM yerine AM7 , C yerine C2 kullandim.Guzel oldu isterseniz bi deneyin


Bu Yoruma Cevap Ver
JACKALkafsinkaf | 01 Mart 2006 Çarşamba 20:05
akorlar birebir...solo da uymuş yaw arkadaşlar...şarkıyı bir daha dinleyin bence :D


Bu Yoruma Cevap Ver
pes_yani | 03 Şubat 2006 Cuma 20:46
ya olmuş kardeşim ama solo garip


Bu Yoruma Cevap Ver
best_of_rocker | 20 Aralık 2005 Salı 22:43
yanlışşşşşşşşşşşşşş üsteki arka katılıorummmmmmmmmmm


Bu Yoruma Cevap Ver
sero_tonin | 20 Aralık 2005 Salı 18:45
akorlar uyuyor fakat solo biraz garip olmuş


Bu Yoruma Cevap Ver
nutella | 18 Aralık 2005 Pazar 16:29
yanlışşşşşşşşşşşşş!!!!!!!!


Bu Yoruma Cevap Ver
shizo | 17 Aralık 2005 Cumartesi 20:06


Siz de Görüş Bildirin

Yorum yazma alanı Akor Merkezi üyelerine özel bir bölümdür. (Giriş Yap / Üye Ol / Şifremi Hatırlat)


PAYLAŞ

Reklam



Anket
Roya soruyor:
Hangi Rock müzik alt türü?













Sonuçlar | Sonuçlar & Yorumlar
Yeni Anket | Anketler




Reklam


Radyo Dinle
AkorMerkezi.com © 2014
İletişim - Gizlilik Politikası - Kullanım Koşulları - Kurallar - Son Yorumlar - Rastgele

GitarAkor.com kolonisidir. Derleme 0,06 saniye.