Akor Tab Söz Çeviri Anasayfası
Akor|Tab|Söz|Nota Arşivi
Gitar Akorları | Tab,Söz ve Nota Anasayfası | En Yeni Şarkılar | En Popüler Şarkılar | Akor Cetveli

Bilgiler
 
Seslendiren ve Şarkı: Türkenblut - Dombra
Biçim: Akor, Gitar Akorları - SOLO
Tarih: 16 Mayıs 2010 Pazar
Gönderen: aczmendi_aslı
Toplam Okuyan: 46.674 kişi
Bu Ay Okuyan: 1.129 kişi
Bu Hafta Okuyan: 124 kişi
 
Beğendiniz mi? Dombra Akor sayfasını Şimdi paylaşın:

Türkenblut - Dombra - Akor


Puanlama:
 (26 kişi)

Dombra şarkısının diğer versiyonlarına bakın >>

Metin boyutu: ( + Büyült ) ( - Küçült)   
not: şarkının son kısımlarındaki C-Bb-C-Bb kısmında 
akorları aşağıda gösterdiğim pozisyonlarda 
basarsanız daha iyi olur:

   e-b-g--d-a--e
C  8-8-9-10-10-8  
Bb 6-6-7-8-8-6

solo kısım :
e---------------------------------------
b---------------------------------------
g-------------5-----5--7--8--7--7-------
d-5--8--5--8-----8----------------------
a---------------------------------------
e---------------------------------------

e--------------------------------------------
b--------------------------------------------
g-8--8--8--7--7--5--5----5--7--7--5--5--9--9--
d---------------------------------------------
a--------------------------------------------
e--------------------------------------------

e---------------------------------------
b---------------------------------------
g---------------------------------------
d-8--8--8--6--6----8--6--5--------------
a---------------------------------------
e---------------------------------------

Gm
Kara kıs avulumga kelgende

Kültüldegen kar yerge tüsgende
Cm
Dombıramdı alarman
Gm
Yürek sazım çalarman
Bb          G#    Gm
Kaygırgandı eş aytbam

Gm
Dombıra sazım estgen ataylar

Manesine es bergen anaylar
Cm
Estgenine oy berip
Gm
Yüreklerge ses berip
Bb           G#    Gm
Köz yastı kızganmaslar

Bb   G#      Gm
heeeeyy dombraaaa

Gm
Nogaydın kaygı sansız kününde

Batirler yuklamagan kününde
Cm
Yüreklerin kötergen
Gm
Sogıslarda küş bergen
Bb          G#    Gm
Köptü körgen Dombıra…

Bb   G#      Gm
heeeeyy dombraaaa

Gm Cm Gm  Bb G# Gm  Cm Gm  Bb G# Gm
hmmmmmmmmmmmmmm


C - Bb - C - Bb  


Gm Cm Gm   Bb G# Gm   Bb G# Gm

----Aslı orbeyi-----
Dombra Akor, AkorMerkezi.com'da yayınlanmıştır.
http://www.akormerkezi.com


İçerik Kısa Linki:


Beğendiniz mi? Dombra Akor sayfasını Şimdi paylaşın:


Türkenblut - Dombra KULLANILAN AKORLAR (Beta)
C0 3 2 0 1 00 3 5 5 5 33 3 2 0 1 0
Bb1 1 3 3 3 1x 1 3 3 3 1x x 0 3 3 1
Gm3 5 5 3 3 3x x 0 3 3 3
Cmx 3 5 5 4 3x x 5 5 4 3
G#4 6 6 5 4 4
Şarkıda kullanılan akorların farklı şekillerde basılışlarıdır. (Detaylı bilgi)

Dombra Akor için Komoçotoko'dan Gelenler
Aramalar: fenerbahçe dombıra akor, nogay el gitar, dombra guitar, gitar dombra notası, dobıra gitar akoru, dombıra akorları ve ritimleri, dombıra gitar notaları do re, dombıra notalaı, dombura kılasik gıtar, dombra marsi melodika so
Türkenblut - Dombra için Kullanıcı Görüşleri

20 Mayıs 2010 Perşembe tarihinde aczmendi_aslı yazmıştı:
aaaaaaa solo ikinci kısımda sondaki dokuzlar re (D) telinde olacaktı yav. yanlış yazmışım
Bence 9 ların yerine 3 yapılırsa oluyor


Bu Yoruma Cevap Ver
seydae | 14 Mayıs 2014 Çarşamba 14:38
27 Mart 2014 Perşembe tarihinde byaposa yazmıştı:
ritimide söyleyeydiniz iyiydi ...
AAY ritmi


Bu Yoruma Cevap Ver
GiTarisT_MuSTi | 05 Nisan 2014 Cumartesi 18:32
14 Mart 2014 Cuma tarihinde farkyapmazzz yazmıştı:
eline sağlık güzel olmuş
teşekkür ederim


Bu Yoruma Cevap Ver
aczmendi_aslı | 27 Mart 2014 Perşembe 22:51
27 Mart 2014 Perşembe tarihinde byaposa yazmıştı:
ritimide söyleyeydiniz iyiydi ...
aslında şarkının ritmi şarkının isminde saklı :) ardı ardına dombradombradombra deyin :) -dom derken aşağı -br derken yine aşağı -ra derken yukarı "ankara" diye isimlendirilen bir ritim var ya onunla aynı. ankara ritminin ölçüsü: bir yarımlık ,bir çeyreklik, bir çeyreklik.


Bu Yoruma Cevap Ver
aczmendi_aslı | 27 Mart 2014 Perşembe 22:46
ritimide söyleyeydiniz iyiydi ...


Bu Yoruma Cevap Ver
byaposa | 27 Mart 2014 Perşembe 20:49
eline sağlık güzel olmuş


Bu Yoruma Cevap Ver
farkyapmazzz | 14 Mart 2014 Cuma 18:37
14 Mart 2014 Cuma tarihinde ahmetyavaş yazmıştı:
e..................................... b..................................... g..0..3..0..3..5..3..5..7........0..3..0..3..8..7..5..7..7..7........
Devamını yazmaya üşendim ;) Sesi böyle daha iyi geliyor
Görüşlerinizi bekleriz ;)




Bu Yoruma Cevap Ver
ahmetyavaş | 14 Mart 2014 Cuma 15:22
e..................................... b..................................... g..0..3..0..3..5..3..5..7........0..3..0..3..8..7..5..7..7..7........
Devamını yazmaya üşendim ;) Sesi böyle daha iyi geliyor


Bu Yoruma Cevap Ver
ahmetyavaş | 14 Mart 2014 Cuma 15:19

e---------------------------------------
b-------------5-----5--7--7--7---------
g-5--8--5--8-----8----------------------
d---------------------------------------
a---------------------------------------
e---------------------------------------
(x2)


e--------------------------------------------
b-8--8--8--7--7--5--5----5--7--7--5--5--3--3--3---3---3---1--1---3---0
g---------------------------------------------
d--------------------------------------------
a--------------------------------------------
e--------------------------------------------
(x2)

böyle hazırladım sanki daha ritimli gibi?




Bu Yoruma Cevap Ver
яus | 13 Eylül 2012 Perşembe 19:59
19 Nisan 2012 Perşembe tarihinde Brave09 yazmıştı:
e--------------------------------------------
b--------------------------------------------
g-8--8--8--7--7--5--5----5--7--7--5--5--9--9--
d---------------------------------------------
a--------------------------------------------
e-------------------------------------------- sanırım burasi tam uymuyo ama gayet güzel :)
braveciim. orasını yanlış yazmışım. sondaki iki tane 9 var ya. onlar d telinde olacak.


Bu Yoruma Cevap Ver
aczmendi_aslı | 24 Nisan 2012 Salı 22:16
e--------------------------------------------
b--------------------------------------------
g-8--8--8--7--7--5--5----5--7--7--5--5--9--9--
d---------------------------------------------
a--------------------------------------------
e-------------------------------------------- sanırım burasi tam uymuyo ama gayet güzel :)


Bu Yoruma Cevap Ver
Brave09 | 19 Nisan 2012 Perşembe 19:13
ritmini söylermisiniz ??


Bu Yoruma Cevap Ver
Kral Ateş | 22 Eylül 2011 Perşembe 19:30
çok güzel bi müzik. tınısı çok hoş.akorlar oturmuş. "çalmaya çalışıyorum"


Bu Yoruma Cevap Ver
aguiliano | 17 Ağustos 2011 Çarşamba 14:46
Dombıraaaaa :D ellerine sağlık güzel olmuş :D


Bu Yoruma Cevap Ver
branix | 07 Ağustos 2011 Pazar 17:16
ya bi kusur bulmayın işte çok güzel olmuş .D eline yüreğine sağlık :D


Bu Yoruma Cevap Ver
branix | 30 Temmuz 2011 Cumartesi 15:42
Bb G# Gm
Kaygırgandı eş aytbam

Bu melodinin geldiği bölümlerde ''Bb'' yerine ''G#'', ''G#'' yerine de ''Fm'' daha iyi oturuyor gibi.


Bu Yoruma Cevap Ver
mavievren | 05 Haziran 2010 Cumartesi 22:19
Benim hasta olduğum bir melodi. ''Çalmaya çalışacak birilerinin olduğunu pek sanmıyorum'' demişsin, demek ki varmış. :)) Ellerine, emeklerine sağlık.


Bu Yoruma Cevap Ver
mavievren | 05 Haziran 2010 Cumartesi 22:12
süper olmuş teşekkürler


Bu Yoruma Cevap Ver
ChrisscorvuS | 03 Haziran 2010 Perşembe 19:20
20 Mayıs 2010 Perşembe tarihinde aczmendi_aslı yazmıştı:
aaaaaaa solo ikinci kısımda sondaki dokuzlar re (D) telinde olacaktı yav. yanlış yazmışım
sorun olmamıştır sanırım, çalmaya çalışacak birilerinin olduğunu pek sanmıyorum :)


Bu Yoruma Cevap Ver
sudusleri | 27 Mayıs 2010 Perşembe 02:01
aaaaaaa solo ikinci kısımda sondaki dokuzlar re (D) telinde olacaktı yav. yanlış yazmışım


Bu Yoruma Cevap Ver
aczmendi_aslı | 20 Mayıs 2010 Perşembe 01:38
Nogay marşı, çok güzel :)


Bu Yoruma Cevap Ver
sudusleri | 19 Mayıs 2010 Çarşamba 01:17


Siz de Görüş Bildirin

Yorum yazma alanı Akor Merkezi üyelerine özel bir bölümdür. (Giriş Yap / Üye Ol / Şifremi Hatırlat)


PAYLAŞ

Reklam



Anket
GeneraaL soruyor:
Sizce Kurtlar Vadisi'nin En Güzel Şarkısı











Sonuçlar | Sonuçlar & Yorumlar
Yeni Anket | Anketler




Reklam


Radyo Dinle
AkorMerkezi.com © 2014
İletişim - Gizlilik Politikası - Kullanım Koşulları - Kurallar - Son Yorumlar - Rastgele

GitarAkor.com kolonisidir. Derleme 0,05 saniye.