Akor Tab Söz Çeviri Anasayfası
Akor|Tab|Söz|Nota Arşivi
Gitar Akorları | Tab,Söz ve Nota Anasayfası | En Yeni Şarkılar | En Popüler Şarkılar | Akor Cetveli

Bilgiler
 
Seslendiren ve Şarkı: Yaşar Kurt - Korku (Solo)
Biçim: TAB -
Tarih: 01 Ocak 2003 Çarşamba
Gönderen: ohara
Toplam Okuyan: 6.625 kişi
Bu Ay Okuyan: 6 kişi
Bu Hafta Okuyan: 6 kişi
 
Beğendiniz mi? Korku (Solo) Tab sayfasını Şimdi paylaşın:

Yaşar Kurt - Korku (Solo) - Tab


Puanlama:
 (0 kişi)


Metin boyutu: ( + Büyült ) ( - Küçült)   
Korku - Solo   Yaşar Kurt

E||--------------------------|--------------------------|
B||----------------8--10--8--|--10/-12\---8-------------|
G||----------7--9------------|-----------------9--7--9--|
D||----7/-9------------------|--------------------------|
A||--------------------------|--------------------------|
E||--------------------------|--------------------------|


                                                         
-------------------------|----------10------------------|
----------------8-----8--|--10/-12------10----8--10--8--|
----------7--9-----9-----|------------------------------|
----7\-9-----------------|------------------------------|
-------------------------|------------------------------|
-------------------------|------------------------------|


                                                                  
--------------------------|---------------------------|
--------------------------|---------------------------|
--------------------------|--------7------------------|
-------------------7------|--7--9-----7--------7------|
---------7--9--10-----10--|----------------10-----10--|
------7-------------------|---------------------------|


                               
-----------10----------------||
--------8------12--10--------||
-----7-----------------------||
--9--------------------------||
-----------------------------||
-----------------------------||
Korku (Solo) Tab, AkorMerkezi.com'da yayınlanmıştır.
http://www.akormerkezi.com


İçerik Kısa Linki:


Beğendiniz mi? Korku (Solo) Tab sayfasını Şimdi paylaşın:


Korku (Solo) Tab için Komoçotoko'dan Gelenler
Aramalar: yaşar kurt akor, gitarda solo şarkı tabları, Yaşar kurt, yaşar kurt anne elektrogitar solo, gitar solo nota, yaşar kurt anne tab, tab solo, yaşar kurt korku tab, yaşar kurt anne akor, yaşar kurt korku arpej
Yaşar Kurt - Korku (Solo) için Kullanıcı Görüşleri

perqua iyi dinle baska sarkı dınlemıyesın sakın :)) korku ha bu



Bu Yoruma Cevap Ver
gitarist80 | 10 Haziran 2008 Salı 10:40
ben şarkıda böyle bir yer hatırlamıyorum eğer sözler bittikten sonraki soloysa bu başka bir şarkı olmalı yada ben az önce bilmem kaçıncı kere dinlediğim şarkıyı tam anlayamamışım


Bu Yoruma Cevap Ver
perqua | 22 Ocak 2008 Salı 21:06
apollonali iyi yolunda başarılar


Bu Yoruma Cevap Ver
apollonali | 10 Temmuz 2007 Salı 11:47
iyi yolunda başarılar


Bu Yoruma Cevap Ver
apollonali | 10 Temmuz 2007 Salı 11:46
teping i nerde bunun abi


Bu Yoruma Cevap Ver
üye-silinmiş | 26 Ağustos 2006 Cumartesi 19:27
kardeşim cok iyi


Bu Yoruma Cevap Ver
Göktuğ_87 | 24 Ağustos 2006 Perşembe 20:01
ehh gzuell solo


Bu Yoruma Cevap Ver
gitarist80 | 01 Mart 2006 Çarşamba 23:37
gercekten cok guzel bır parca ben begendım herkese basarılar


Bu Yoruma Cevap Ver
bLaCk_DeAtH-90 | 24 Şubat 2006 Cuma 14:59


Siz de Görüş Bildirin

Yorum yazma alanı Akor Merkezi üyelerine özel bir bölümdür. (Giriş Yap / Üye Ol / Şifremi Hatırlat)


PAYLAŞ

Reklam



Anket
Uğurcank soruyor:
Elektro Akustik Gitar İçin Elektro Gitar Amfisi Kullanılır mı ?













Sonuçlar | Sonuçlar & Yorumlar
Yeni Anket | Anketler




Reklam


Radyo Dinle
AkorMerkezi.com © 2014
İletişim - Gizlilik Politikası - Kullanım Koşulları - Kurallar - Son Yorumlar - Rastgele

GitarAkor.com kolonisidir. Derleme 0,05 saniye.