Akor Tab Söz Çeviri Anasayfası
Akor|Tab|Söz|Nota Arşivi
Gitar Akorları | Tab,Söz ve Nota Anasayfası | En Yeni Şarkılar | En Popüler Şarkılar | Akor Cetveli

Bilgiler
 
Seslendiren ve Şarkı: Yeni Türkü - Bana Bir Masal Anlat Baba
Biçim: TAB - INTRO
Tarih: 29 Ocak 2009 Perşembe
Gönderen: LionKing
Toplam Okuyan: 22.368 kişi
Bu Ay Okuyan: 367 kişi
Bu Hafta Okuyan: 18 kişi
 
Beğendiniz mi? Bana Bir Masal Anlat Baba Tab sayfasını Şimdi paylaşın:
DİKKAT!
Bana Bir Masal Anlat Baba Tab sayfasını düzgün görüntüleyemiyor olabilirsiniz.
Eğer böyle bir sıkıntınız varsa tıklayın.

Yeni Türkü - Bana Bir Masal Anlat Baba - Tab

  (versiyon 2)
Puanlama:
 (16 kişi)

Bana Bir Masal Anlat Baba şarkısının diğer versiyonlarına bakın >>

Metin boyutu: ( + Büyült ) ( - Küçült)   


E:----------------------------------------------------------------------
B:--5--8--7--8--7--7-7-7-7--8--10--8--5-5-5-5--7--8--7--5--8------------
G:----------------------------------------------------------------------
D:----------------------------------------------------------------------
A:----------------------------------------------------------------------
E:----------------------------------------------------------------------


E:----------------------------------------------------------------------
B:--5--8--7--8--7--7-7-7-7--8--10--8--5-5-5-5--7--8--7--5--5------------
G:----------------------------------------------------------------------
D:----------------------------------------------------------------------
A:----------------------------------------------------------------------
E:----------------------------------------------------------------------


Sistemi budur bence... Eğer ses ince geldiyse 2 den ya da başka bi telin istediğiniz yerinden başlayabilirsini
z...
Bana Bir Masal Anlat Baba Tab, AkorMerkezi.com'da yayınlanmıştır.
http://www.akormerkezi.com


İçerik Kısa Linki:


Beğendiniz mi? Bana Bir Masal Anlat Baba Tab sayfasını Şimdi paylaşın:



Bana Bir Masal Anlat Baba Tab için Komoçotoko'dan Gelenler
Aramalar: Yeni türkü bana, Bana bir masal anlat akor ver 2, anne bir masal anlat bana notaları, baba bana bir anlatsana tablar, bana bir masal anlatın solosu, BANA BİR MASAL ANLAT BABATAB, baba bir masal anlat bana gitar notaları, gitar akorları bana bir masal anlat baba tab, bana bir masal anlat baba melodika notaları, türkü tabları
Yeni Türkü - Bana Bir Masal Anlat Baba için Kullanıcı Görüşleri

son 2 notada 5 8 le bitse asında o da güzel olabilirmiş


Bu Yoruma Cevap Ver
Riseses | 30 Ocak 2012 Pazartesi 12:37
çok hoş olmuş eline sağlık....


Bu Yoruma Cevap Ver
acemi_eskli | 02 Mayıs 2011 Pazartesi 20:49
süper de devamı daha güsel olur her hadle emeğğine tşk :))


Bu Yoruma Cevap Ver
TekVeGerçek | 15 Aralık 2010 Çarşamba 20:46
gerçekten ellerine ,kulaklarına sağlık mutluluk ve huzurlar....


Bu Yoruma Cevap Ver
kucuka | 05 Mart 2010 Cuma 23:45
13 Şubat 2009 Cuma tarihinde serhan181 yazmıştı:
sadece son iki nota 5-5 yerine 4-5 olmalı, bir de ufak bir süsleme eklenebilir,

--5--8--7--8--7--7-7-7-7--8--10--8- *7-8* -5-5-5-5--7--8--7--5--8------------

yıldızla işaretliğim yere...

bunun dışında çok beğendim, teşekkürler
çalarken ben de farkettim süslemeli kısım eksik gibi geldi fakat şarkının orjinalinde o kısmın olmadığını farkettim dinleyince
ama eklediğin kısımla çalınca daha güzel geldi kulağıma :)
teşekkür ederim bu arada ;)


Bu Yoruma Cevap Ver
zardanadam86 | 06 Eylül 2009 Pazar 17:26
sadece son iki nota 5-5 yerine 4-5 olmalı, bir de ufak bir süsleme eklenebilir,

--5--8--7--8--7--7-7-7-7--8--10--8- *7-8* -5-5-5-5--7--8--7--5--8------------

yıldızla işaretliğim yere...

bunun dışında çok beğendim, teşekkürler


Bu Yoruma Cevap Ver
serhan181 | 13 Şubat 2009 Cuma 11:37
kardeş ellerine sağlık


Bu Yoruma Cevap Ver
teomanyakupoglu | 09 Şubat 2009 Pazartesi 18:17


Siz de Görüş Bildirin

Yorum yazma alanı Akor Merkezi üyelerine özel bir bölümdür. (Giriş Yap / Üye Ol / Şifremi Hatırlat)


PAYLAŞ

Reklam



Anket
derbeder. soruyor:
Akustik Gitar Almayı Düşünüyorum. Ne Önerirsiniz?










Sonuçlar | Sonuçlar & Yorumlar
Yeni Anket | Anketler




Reklam


Radyo Dinle
AkorMerkezi.com © 2014
İletişim - Gizlilik Politikası - Kullanım Koşulları - Kurallar - Son Yorumlar - Rastgele

GitarAkor.com kolonisidir. Derleme 0,05 saniye.