Akor Tab Söz Çeviri Anasayfası
Akor|Tab|Söz|Nota Arşivi
Gitar Akorları | Tab,Söz ve Nota Anasayfası | En Yeni Şarkılar | En Popüler Şarkılar | Akor Cetveli

Bilgiler
 
Seslendiren ve Şarkı: Zeki Müren - Duydumki Unutmuşsun
Biçim: TAB - HİÇBİRİ
Tarih: 10 Aralık 2008 Çarşamba
Gönderen: ohara
Toplam Okuyan: 21.740 kişi
Bu Ay Okuyan: 236 kişi
Bu Hafta Okuyan: 82 kişi
 
Beğendiniz mi? Duydumki Unutmuşsun Tab sayfasını Şimdi paylaşın:

Zeki Müren - Duydumki Unutmuşsun - Tab


Puanlama:
 (10 kişi)

Duydumki Unutmuşsun şarkısının diğer versiyonlarına bakın >>

Metin boyutu: ( + Büyült ) ( - Küçült)   
E--
B-1-1-1-1-0-1-0--------0-1-0-----------------------------0

G-----------------0------------2-0-2-0----------------0
D-------------------3-2-------------------3-3-3-3-0-3
A--
E-

E--
B-1-0-

G----2-0----0
D----------3---2
A--
E-

                      Tekrar aynısı nakarat


Duydumki Unutmuşsun Tab, AkorMerkezi.com'da yayınlanmıştır.
http://www.akormerkezi.com


İçerik Kısa Linki:


Beğendiniz mi? Duydumki Unutmuşsun Tab sayfasını Şimdi paylaşın:


Duydumki Unutmuşsun Tab için Komoçotoko'dan Gelenler
Aramalar: bir zamanlar sevgimle tab, Gözlerimin rengini tab, duydum ki unutmusun tab, duydumki unutmuşsun gözlerimin rengini akor tab, zeki muren mizika tab, duydum'ki unutmuşsun gözlerimin rengini tab, bir zamanlar seninle gitar tab, zeki müren, DUYDUMDUMKİ UNUTMUŞSUN NOTA, zeki müren duydumki unutmuşun
Zeki Müren - Duydumki Unutmuşsun için Kullanıcı Görüşleri

14 Eylül 2011 Çarşamba tarihinde drongserdar yazmıştı:
bn size doğrusunu yazım
ince E'den çalınacak

E- 7/8-8-8-8-8-7-8-7-3-1-0
E- 7-8-7-5-3-5-3
E- 1-1-1-1-0-1
E- 5-8-7-5-3-1-0-1-0
umarım doğrudur
Teşekkürler harika


Bu Yoruma Cevap Ver
n1dq | 26 Ocak 2012 Perşembe 13:24
aga düzenli yazda anlayalım ya .


Bu Yoruma Cevap Ver
çikireyiz | 17 Ekim 2011 Pazartesi 19:39
bn size doğrusunu yazım
ince E'den çalınacak

E- 7/8-8-8-8-8-7-8-7-3-1-0
E- 7-8-7-5-3-5-3
E- 1-1-1-1-0-1
E- 5-8-7-5-3-1-0-1-0
umarım doğrudur


Bu Yoruma Cevap Ver
drongserdar | 14 Eylül 2011 Çarşamba 12:29
elinize sağlık gayet güzel


Bu Yoruma Cevap Ver
aysen95 | 09 Eylül 2011 Cuma 12:41
oguzhan süpoer olmuş harika


Bu Yoruma Cevap Ver
~ Kisses`<3 | 17 Eylül 2010 Cuma 21:17
E|------|------|------|------|------|------|------|------|
B|------|------|------|------|------|------|------|------|
G|------|------|------|------|------|------|------|------|
D|------|------|0-----|3-----|2-0---|------|------|------|
A|1--11-|1-0---|------|------|----3-|1-0-1-|0-----|------|
E|------|----3-|------|------|------|------|------|------|
Dizlerinin yerine dayasaydim taslara
oguzhanın tabının son kısmındaki tek bir notalık bir hatayı yazıyorum. tab onun dısında doğrudur sadece gamlarla desteklenseydi cok daha akıcı olurdu

E|------|------|------|------|------|------|------|------|
B|------|------|------|------|------|------|------|------|
G|------|------|------|------|------|------|------|------|
D|------|------|0-----|2----|2-0---|------|------|------|
A|1--11-|1-0---|------|------|----3-|1-0-1-|0-----|------|
E|------|----3-|------|------|------|------|------|------|
Dizlerinin yerine dayasaydim taslara

bunu kullanın


Bu Yoruma Cevap Ver
raisercan | 01 Haziran 2009 Pazartesi 17:49
em oguzhanı tabı cok doğru iyisni biliorsan yaz fazla konuşma


Bu Yoruma Cevap Ver
erenyilmaz52 | 20 Şubat 2009 Cuma 15:59
yazilan tabda cok eksiklikler var,calarken farkedeceksiniz...oguzhan,eline saglik,senin tabin daha iyi,seninkinde de eksiklikler var yalniz,sakin yanlis anlama:)


Bu Yoruma Cevap Ver
em_ya | 17 Aralık 2008 Çarşamba 18:40
oguzhan1 çok güsel olmuş kardeş


Bu Yoruma Cevap Ver
dolores_21 | 14 Aralık 2008 Pazar 19:09
guzel olmus eline sağlık..


Bu Yoruma Cevap Ver
maxers | 14 Aralık 2008 Pazar 16:22


|:Dm C
E|------|------|------|------|------|------|------|------|------|------|------|
B|------|------|------|------|------|------|------|------|------|----3-|1-----|
G|2-3-2-|0-----|------|------|------|------|------|------|2-3-0-|2-3---|------|
D|------|--3-2-|0-----|------|2-3-2-|0-----|------|------|------|------|------|
A|------|------|------|------|------|--3-1-|0-----|------|------|------|------|

Duydum ki unutmussun, gözlerimin rengini Duydum ki unutmus sun
Dm
E|------|------|------|------|------|------|------|------|------|------|------|
B|------|----1-|------|------|------|------|------|------|------|------|------|
G|------|2-3---|3-2-0-|2-----|------|2-3-2-|0-----|------|------|------|------|
D|------|------|------|------|------|------|--3-2-|0-----|3-----|2-3-2-|0---0-|
A|------|------|------|------|------|------|------|------|------|------|--3---|
gözlerimin rengini Yazik olmus o gözlerden sana akan yasla
C Dm C Dm :|
E|------|------|------|------|------|------|------|------|------|------|
B|------|------|------|------|------|------|------|------|------|------|
G|------|------|------|------|------|------|------|------|------|------|
D|------|------|0-1-0-|------|------|3-----|2-0---|------|------|------|
A|3-----|------|------|3-1-3-|0-----|------|----3-|1-0-1-|0-----|------|(fin)
ra Yazik olmus o göz lerden sana akan yasla ra
|:Dm C
E|------|------|------|------|------|------|------|------|
B|------|------|------|------|------|------|------|------|
G|------|------|------|------|------|------|------|------|
D|3--33-|3-2-3-|2-----|------|2-3-2-|0---0-|------|------|
A|------|------|------|3-1-0-|------|--3---|3-----|------|
bir zamanlar sevginle ateslenen basi mı
Gm Dm C Dm :|
E|------|------|------|------|------|------|------|------|
B|------|------|------|------|------|------|------|------|
G|------|------|------|------|------|------|------|------|
D|------|------|0-----|3-----|2-0---|------|------|------|
A|1--11-|1-0---|------|------|----3-|1-0-1-|0-----|------|
E|------|----3-|------|------|------|------|------|------|
Dizlerinin yerine dayasaydim taslara

Bunu kullanın


Bu Yoruma Cevap Ver
oguzhan1 | 14 Aralık 2008 Pazar 14:45
sonu bozulmus ama doqruLuk payı war (: emeqine saqLık :D


Bu Yoruma Cevap Ver
chernobil_tgcn | 14 Aralık 2008 Pazar 14:39
aynen ..dr. bune???


Bu Yoruma Cevap Ver
raşa | 13 Aralık 2008 Cumartesi 19:48
bu ne


Bu Yoruma Cevap Ver
çılgın | 13 Aralık 2008 Cumartesi 19:25


Siz de Görüş Bildirin

Yorum yazma alanı Akor Merkezi üyelerine özel bir bölümdür. (Giriş Yap / Üye Ol / Şifremi Hatırlat)


PAYLAŞ

Reklam



Anket
TheKombite soruyor:
Hangisi Olmak İsterdiniz ?












Sonuçlar | Sonuçlar & Yorumlar
Yeni Anket | Anketler




Reklam


Radyo Dinle
AkorMerkezi.com © 2014
İletişim - Gizlilik Politikası - Kullanım Koşulları - Kurallar - Son Yorumlar - Rastgele

GitarAkor.com kolonisidir. Derleme 0,05 saniye.