Akor Tab Söz Çeviri Anasayfası
Akor|Tab|Söz|Nota Arşivi
Gitar Akorları | Tab,Söz ve Nota Anasayfası | En Yeni Şarkılar | En Popüler Şarkılar | Akor Cetveli

Bilgiler
 
Seslendiren ve Şarkı: Zeki Üngör - İstiklal Marşı
Biçim: TAB - SOLO
Tarih: 30 Ekim 2010 Cumartesi
Gönderen: ebgdae39
Toplam Okuyan: 63.508 kişi
Bu Ay Okuyan: 776 kişi
Bu Hafta Okuyan: 125 kişi
 
Beğendiniz mi? İstiklal Marşı Tab sayfasını Şimdi paylaşın:

Zeki Üngör - İstiklal Marşı - Tab

  (versiyon 2)
Puanlama:
 (165 kişi)

İstiklal Marşı şarkısının diğer versiyonlarına bakın >>

Metin boyutu: ( + Büyült ) ( - Küçült)   
E--------------/--------------/-------------------------------0-------------/
B--------------/-----0-1---0--/-0---0-------------------0-1-3---3-----0-----/
G-------0------/---2-----1---2/---3-------2-0-------0-2-----------------2-0-/
D---2-4---1-4-2/-2------------/-------4-4-----1-2-4---------------0-0-------/
A-2------------/--------------/---------------------------------------------/
E--------------/--------------/---------------------------------------------/

E-----------------------0----------------------/
B-----------0-------------3-1-0----------0-----/
G-------------2-0---0-----------2-0------------/
D-------4---------4---2-------------4-2------2-/
A-2-1-2---2--------------------------------2---/
E----------------------------------------------/
İstiklal Marşı Tab, AkorMerkezi.com'da yayınlanmıştır.
http://www.akormerkezi.com


İçerik Kısa Linki:


Beğendiniz mi? İstiklal Marşı Tab sayfasını Şimdi paylaşın:


İstiklal Marşı Tab için Komoçotoko'dan Gelenler
Aramalar: istiklal marsi gigitar notaları, google, istiklal marşının gitar notaları, istiklal marsi klasik gitar solo, istiklal marşı arpej tab, istiklal+marşı+tab, istiklal marşı solo, istiklal maşın solo notası, istiklal marşı gitar tab,, istiklal marşı klasik gitar tabları
Zeki Üngör - İstiklal Marşı için Kullanıcı Görüşleri

cok guzel ve gurur verici eline koluna saglik! nemutlu turkum diyene


Bu Yoruma Cevap Ver
ulasbasar | 03 Mart 2014 Pazartesi 20:31
teşekkürler :)


Bu Yoruma Cevap Ver
miya | 19 Şubat 2014 Çarşamba 12:21
23 Eylül 2012 Pazar tarihinde memrekaya yazmıştı:
mükemmelsin hocam mükemmel
aynen


Bu Yoruma Cevap Ver
dogusch | 04 Ekim 2013 Cuma 19:51
Ellerine sağlık süper olmuş. Sayende İstiklal Marşı'nı çalabiliyorum. :)
1-2 yerde takılıyorum ama hallederiz :D


Bu Yoruma Cevap Ver
dogusch | 04 Ekim 2013 Cuma 19:50
25 Mart 2011 Cuma tarihinde oguzhan_ yazmıştı:
düzeltiyorum arkadaşlar nerdeyse farkedilmeyecek kadar küçük bir hata olmuş

E--------------/--------------/-------------------------------0-------------/
B--------------/-----0-1-(0)--0--/-0---0-------------------0-1-3---3-----0-----/
G-------0------/---2--------1---2/---3-------2-0-------0-2-----------------2-0-/
D---2-4---1-4-2/-2------------/-------4-4-----1-2-4---------------0-0-------/
A-2------------/--------------/---------------------------------------------/
E--------------/--------------/---------------------------------------------/

E-----------------------0----------------------/
B-----------0-------------3-1-0----------0-----/
G-------------2-0---0-----------2-0------------/
D-------4---------4---2-------------4-2------2-/
A-2-1-2---2--------------------------------2---/
E----------------------------------------------/
Ellerine sağlık 10 üzerinden 100


Bu Yoruma Cevap Ver
Thewheart | 02 Haziran 2013 Pazar 20:54
gerçekten çok güzel :)


Bu Yoruma Cevap Ver
John_Cena | 07 Mayıs 2013 Salı 18:13
Kulağına sağlık kardeş :)


Bu Yoruma Cevap Ver
ewillmetal | 26 Mart 2013 Salı 08:11
ayakta çaldım :)


Bu Yoruma Cevap Ver
Tortilla | 15 Aralık 2012 Cumartesi 11:42
bravo çok iyi :) Bende buna yakın birşey hazırlamıştım yayınlayacakdım :)


Bu Yoruma Cevap Ver
Trueruby | 01 Aralık 2012 Cumartesi 13:26
ellerine saglık mukemmel olmuş


Bu Yoruma Cevap Ver
guitarpro64 | 15 Kasım 2012 Perşembe 13:33
helal olsun çok iyi.


Bu Yoruma Cevap Ver
LionelMessi | 29 Ekim 2012 Pazartesi 14:57
Bravo gerçekten çok iyi! Teşekkür ederim arkadaşım.


Bu Yoruma Cevap Ver
RGX | 22 Ekim 2012 Pazartesi 22:09
çok iyi :D Eline sağlık :DD


Bu Yoruma Cevap Ver
AthenaKolik | 04 Ekim 2012 Perşembe 19:52
hocam 2.kıta da aynı ki zaten 1.kıta ile :)


Bu Yoruma Cevap Ver
memrekaya | 24 Eylül 2012 Pazartesi 18:34
mükemmelsin hocam mükemmel


Bu Yoruma Cevap Ver
memrekaya | 23 Eylül 2012 Pazar 10:30
vay bee. on numara olmuş ellerine sağlık.


Bu Yoruma Cevap Ver
haako20 | 20 Eylül 2012 Perşembe 18:35
2. kıtayıda bekliyorum

ellerine sağlık


Bu Yoruma Cevap Ver
berkekolik1 | 30 Nisan 2012 Pazartesi 20:00
Böyle birşey paylaştığın için sana çok teşekkür ediyorum...


Bu Yoruma Cevap Ver
ege99 | 21 Nisan 2012 Cumartesi 17:56
muhteşem olmuş ellerine sağlık devamını bekleriz :)


Bu Yoruma Cevap Ver
I-DO | 21 Mart 2012 Çarşamba 21:57
Gururlandırdı beni :)


Bu Yoruma Cevap Ver
dumancıyız | 12 Mart 2012 Pazartesi 21:47
02 Şubat 2012 Perşembe tarihinde hayatı-yakala yazmıştı:
"Larda yüzen al sancak" bölümünü yani şu bölümü ;

/----------------/ şöyle de yapabilirsiniz; /------------------/ bende aynı buradakine çok benzer neredeyse aynı tab çıkarmıştım,
/-----0-1---0--/ /-------1---------/ yalnızca bu gösterdiğim bölüm farklıydı. zaten aşağı yukarı aynı ses. yalnız
/---2-----1---2/ /---2-4---1--4-2/ çok iyi olmuş, teşekkürler :)
/-2------------/ /-2---------------/
/--------------/ /------------------/
/--------------/ /------------------/
harfler kaymış pardon ;

/------------------/
/-------1---------/
/---2-4---1--4-2/
/------------------/
/------------------/


Bu Yoruma Cevap Ver
hayatı-yakala | 02 Şubat 2012 Perşembe 16:08
"Larda yüzen al sancak" bölümünü yani şu bölümü ;

/----------------/ şöyle de yapabilirsiniz; /------------------/ bende aynı buradakine çok benzer neredeyse aynı tab çıkarmıştım,
/-----0-1---0--/ /-------1---------/ yalnızca bu gösterdiğim bölüm farklıydı. zaten aşağı yukarı aynı ses. yalnız
/---2-----1---2/ /---2-4---1--4-2/ çok iyi olmuş, teşekkürler :)
/-2------------/ /-2---------------/
/--------------/ /------------------/
/--------------/ /------------------/


Bu Yoruma Cevap Ver
hayatı-yakala | 02 Şubat 2012 Perşembe 16:06
Mükemmel :)


Bu Yoruma Cevap Ver
gayret | 08 Ocak 2012 Pazar 16:34
hiç bir şey istiklal Marşımızı çalmak kadar gurur vermemişti bana,teşekkürler.


Bu Yoruma Cevap Ver
cccepccc | 17 Aralık 2011 Cumartesi 13:29
Mükkemmell :))


Bu Yoruma Cevap Ver
goztepele | 15 Kasım 2011 Salı 16:20
yapanın elleri dert görmesinm mütişş yapmış helal olsun...


Bu Yoruma Cevap Ver
kaan571 | 05 Kasım 2011 Cumartesi 23:39
Çok Güzel


Bu Yoruma Cevap Ver
Alone.Dark | 05 Kasım 2011 Cumartesi 12:02
12 Ekim 2011 Çarşamba tarihinde CanSeyran yazmıştı:
Süper olmus ama sonlara Doğru sıçmışsın :)
kardes pardon süpermis kardesim yazmıs yorumu eline sağlık senden ii gitarıst olrrr


Bu Yoruma Cevap Ver
CanSeyran | 13 Ekim 2011 Perşembe 18:27
haha güzel olmus eline saglik :D


Bu Yoruma Cevap Ver
tehlikelicocuk | 29 Eylül 2011 Perşembe 19:24
güzel olmus oğuzhan arkadaşımın dediğide doğru onun dışında beğendim ellerine sağlık:d


Bu Yoruma Cevap Ver
valensia | 10 Mayıs 2011 Salı 20:14
beğendim


Bu Yoruma Cevap Ver
eskitoprak | 03 Mayıs 2011 Salı 14:44
Ellerine sağlık güsel olmuş ;)


Bu Yoruma Cevap Ver
-jazz bluess- | 25 Nisan 2011 Pazartesi 14:00
kutlarım :)


Bu Yoruma Cevap Ver
asdeta | 26 Mart 2011 Cumartesi 16:16
oguzhan_ adında arkadaş benim söylemem gerekenleri söylemiş zaten :D


Bu Yoruma Cevap Ver
ebgdae39 | 25 Mart 2011 Cuma 19:02
düzeltiyorum arkadaşlar nerdeyse farkedilmeyecek kadar küçük bir hata olmuş

E--------------/--------------/-------------------------------0-------------/
B--------------/-----0-1-(0)--0--/-0---0-------------------0-1-3---3-----0-----/
G-------0------/---2--------1---2/---3-------2-0-------0-2-----------------2-0-/
D---2-4---1-4-2/-2------------/-------4-4-----1-2-4---------------0-0-------/
A-2------------/--------------/---------------------------------------------/
E--------------/--------------/---------------------------------------------/

E-----------------------0----------------------/
B-----------0-------------3-1-0----------0-----/
G-------------2-0---0-----------2-0------------/
D-------4---------4---2-------------4-2------2-/
A-2-1-2---2--------------------------------2---/
E----------------------------------------------/


Bu Yoruma Cevap Ver
oguzhan_ | 25 Mart 2011 Cuma 18:51
18 Mart 2011 Cuma tarihinde Guitar7 yazmıştı:
3 M
Müthiş
Muhteşem
Mükkemmel
çok teşekkür :)


Bu Yoruma Cevap Ver
oguzhan_ | 25 Mart 2011 Cuma 18:50
18 Şubat 2011 Cuma tarihinde selimcan yazmıştı:
3. kıtanın melodisinide gönderebilirmisin
???


Bu Yoruma Cevap Ver
oguzhan_ | 25 Mart 2011 Cuma 18:49
3 M
Müthiş
Muhteşem
Mükkemmel


Bu Yoruma Cevap Ver
Guitar7 | 18 Mart 2011 Cuma 22:25
3. kıtanın melodisinide gönderebilirmisin


Bu Yoruma Cevap Ver
selimcan | 18 Şubat 2011 Cuma 20:17
güzel yorumlar için teşekkürler :)


Bu Yoruma Cevap Ver
ebgdae39 | 08 Şubat 2011 Salı 18:14
13 Aralık 2010 Pazartesi tarihinde exyq yazmıştı:
çok ama çok güzel olmuş... 10 üzerindn puan vermek gerekse 11 veririm :)
güzel olmuş


Bu Yoruma Cevap Ver
katilkurt | 27 Ocak 2011 Perşembe 17:13
2. kıtası da aynı melodiyle arkadaşım :)


Bu Yoruma Cevap Ver
ebgdae39 | 26 Aralık 2010 Pazar 19:38
2. kıtasını da yollarsan çok sevinirim


Bu Yoruma Cevap Ver
exyq | 13 Aralık 2010 Pazartesi 18:15
çok ama çok güzel olmuş... 10 üzerindn puan vermek gerekse 11 veririm :)


Bu Yoruma Cevap Ver
exyq | 13 Aralık 2010 Pazartesi 18:11
02 Kasım 2010 Salı tarihinde Meite yazmıştı:
Çok güzel, ama bide o ara geçişleri olsa daha iyi olurdu, teşekkürler.
kesinlikle haklısın:)


Bu Yoruma Cevap Ver
GuitaritsFurkan | 01 Aralık 2010 Çarşamba 20:02
teşekkürler arkadaşım çıkarırsam onları da eklerim


Bu Yoruma Cevap Ver
ebgdae39 | 11 Kasım 2010 Perşembe 20:32
Çok güzel, ama bide o ara geçişleri olsa daha iyi olurdu, teşekkürler.


Bu Yoruma Cevap Ver
Meite | 02 Kasım 2010 Salı 01:32
orjinaldir..


Bu Yoruma Cevap Ver
ebgdae39 | 31 Ekim 2010 Pazar 13:52


Siz de Görüş Bildirin

Yorum yazma alanı Akor Merkezi üyelerine özel bir bölümdür. (Giriş Yap / Üye Ol / Şifremi Hatırlat)


PAYLAŞ

Reklam



Anket
cemo184 soruyor:
Sizce Hangi Grup/Müzisyen Daha İyiydi ve Elektro Gitarı Rock'ın İçine Daha Güzel Soktu?












Sonuçlar | Sonuçlar & Yorumlar
Yeni Anket | Anketler




Reklam


Radyo Dinle
AkorMerkezi.com © 2014
İletişim - Gizlilik Politikası - Kullanım Koşulları - Kurallar - Son Yorumlar - Rastgele

GitarAkor.com kolonisidir. Derleme 0,08 saniye.